  0
SECTION
  2
HEADER
  9
$ACADVER
  1
AC1009
  9
$INSBASE
 10
0
 20
0
 30
0
  9
$EXTMIN
 10
0
 20
0
  9
$EXTMAX
 10
210
 20
148.5
  9
$LIMMIN
 10
0
 20
0
  9
$LIMMAX
 10
210
 20
148.5
  9
$LTSCALE
 40
0.5
  0
ENDSEC
  0
SECTION
  2
TABLES
  0
TABLE
  2
LTYPE
 70
     9
  0
LTYPE
  2
CONTINUOUS
 70
    64
  3
実線
 72
    65
 73
     0
 40
0.0
  0
LTYPE
  2
DASHED1
 70
    64
  3
--  --  --  --  --  --  --  --  
 72
    65
 73
     2
 40
2.5
 49
1.25
 49
-1.25
  0
LTYPE
  2
DASHED2
 70
    64
  3
----    ----    ----    ----    
 72
    65
 73
     2
 40
5.0
 49
2.5
 49
-2.5
  0
LTYPE
  2
DASHED3
 70
    64
  3
------  ------  ------  ------  
 72
    65
 73
     2
 40
5.0
 49
3.75
 49
-1.25
  0
LTYPE
  2
CENTER1
 70
    64
  3
----- - ----- - ----- - ----- - 
 72
    65
 73
     4
 40
10.0
 49
6.25
 49
-1.25
 49
1.25
 49
-1.25
  0
LTYPE
  2
CENTER2
 70
    64
  3
----------  --  ----------  --  
 72
    65
 73
     4
 40
20.0
 49
12.5
 49
-2.5
 49
2.5
 49
-2.5
  0
LTYPE
  2
PHANTOM1
 70
    64
  3
--- - - --- - - --- - - --- - - 
 72
    65
 73
     6
 40
10.0
 49
3.25
 49
-1.25
 49
1.25
 49
-1.25
 49
1.25
 49
-1.25
  0
LTYPE
  2
PHANTOM2
 70
    64
  3
--------  -  -  --------  -  -  
 72
    65
 73
     6
 40
20.0
 49
10.0
 49
-2.5
 49
1.25
 49
-2.5
 49
1.25
 49
-2.5
  0
LTYPE
  2
DOT
 70
    64
  3
-   -   -   -   -   -   -   -   
 72
    65
 73
     2
 40
2.5
 49
0.625
 49
-1.875
  0
LTYPE
  2
DUMMY
 70
    64
  3
ダミー
 72
    65
 73
     0
 40
0.0
  0
LTYPE
  2
RAND1
 70
    64
  3
ランダム線1
 72
    65
 73
     4
 40
10.0
 49
1.0
 49
-2.0
 49
3.0
 49
-4.0
  0
LTYPE
  2
RAND2
 70
    64
  3
ランダム線2
 72
    65
 73
     4
 40
14.0
 49
2.0
 49
-3.0
 49
4.0
 49
-5.0
  0
LTYPE
  2
RAND3
 70
    64
  3
ランダム線3
 72
    65
 73
     4
 40
18.0
 49
3.0
 49
-4.0
 49
5.0
 49
-6.0
  0
LTYPE
  2
RAND4
 70
    64
  3
ランダム線4
 72
    65
 73
     4
 40
22.0
 49
4.0
 49
-5.0
 49
6.0
 49
-7.0
  0
LTYPE
  2
RAND5
 70
    64
  3
ランダム線5
 72
    65
 73
     4
 40
26.0
 49
5.0
 49
-6.0
 49
7.0
 49
-8.0
  0
LTYPE
  2
LONG1
 70
    64
  3
----------  --  ----------  --  
 72
    65
 73
     4
 40
40.0
 49
32.5
 49
-2.5
 49
2.5
 49
-2.5
  0
LTYPE
  2
LONG2
 70
    64
  3
--------  -  -  --------  -  -  
 72
    65
 73
     6
 40
40.0
 49
30.0
 49
-2.5
 49
1.25
 49
-2.5
 49
1.25
 49
-2.5
  0
LTYPE
  2
LONG3
 70
    64
  3
+++++++++++++++..+++++++++++++++
 72
    65
 73
     2
 40
40.0
 49
37.5
 49
-2.5
  0
LTYPE
  2
LONG4
 70
    64
  3
+++++++++++++++..+++++++++++++++
 72
    65
 73
     2
 40
80.0
 49
75.0
 49
-5.0
  0
LTYPE
  2
LONG5
 70
    64
  3
----------  --  ----------  --  
 72
    65
 73
     4
 40
60.0
 49
37.5
 49
-7.5
 49
7.5
 49
-7.5
  0
LTYPE
  2
dashed
 70
   64
  3
-------   -------------   ------
 72
   65
 73
    2
 40
7.5
 49
6
 49
-1.5
  0
LTYPE
  2
dashed_spaced
 70
   64
  3
----        --------        ----
 72
   65
 73
    2
 40
12
 49
6
 49
-6
  0
LTYPE
  2
long_dashed_dotted
 70
   64
  3
------------- --- --------------
 72
   65
 73
    4
 40
15.25
 49
12
 49
-1.5
 49
0.25
 49
-1.5
  0
LTYPE
  2
long_dashed_double-dotted
 70
   64
  3
----------- --- --- ------------
 72
   65
 73
    6
 40
17
 49
12
 49
-1.5
 49
0.25
 49
-1.5
 49
0.25
 49
-1.5
  0
LTYPE
  2
long_dashed_triplicate-dotted
 70
   64
  3
--------- --- --- --- ----------
 72
   65
 73
    8
 40
18.75
 49
12
 49
-1.5
 49
0.25
 49
-1.5
 49
0.25
 49
-1.5
 49
0.25
 49
-1.5
  0
LTYPE
  2
dotted
 70
   64
  3
   -       -       -       -    
 72
   65
 73
    2
 40
1.75
 49
0.25
 49
-1.5
  0
LTYPE
  2
chain
 70
   64
  3
-------------- -- --------------
 72
   65
 73
    4
 40
18.5
 49
12
 49
-1.5
 49
3.5
 49
-1.5
  0
LTYPE
  2
chain_double_dash
 70
   64
  3
------------ -- -- -------------
 72
   65
 73
    6
 40
23.5
 49
12
 49
-1.5
 49
3.5
 49
-1.5
 49
3.5
 49
-1.5
  0
LTYPE
  2
dashed_dotted
 70
   64
  3
-----------     -     ----------
 72
   65
 73
    4
 40
9.25
 49
6
 49
-1.5
 49
0.25
 49
-1.5
  0
LTYPE
  2
double-dashed_dotted
 70
   64
  3
------   -----------   -   -----
 72
   65
 73
    6
 40
16.75
 49
6
 49
-1.5
 49
6
 49
-1.5
 49
0.25
 49
-1.5
  0
LTYPE
  2
dashed_double-dotted
 70
   64
  3
---------    -    -    ---------
 72
   65
 73
    6
 40
11
 49
6
 49
-1.5
 49
0.25
 49
-1.5
 49
0.25
 49
-1.5
  0
LTYPE
  2
double-dashed_double-dotted
 70
   64
  3
-----   ---------   -   -   ----
 72
   65
 73
    8
 40
18.5
 49
6
 49
-1.5
 49
6
 49
-1.5
 49
0.25
 49
-1.5
 49
0.25
 49
-1.5
  0
LTYPE
  2
dashed_triplicate-dotted
 70
   64
  3
-------    -    -    -    ------
 72
   65
 73
    8
 40
12.75
 49
6
 49
-1.5
 49
0.25
 49
-1.5
 49
0.25
 49
-1.5
 49
0.25
 49
-1.5
  0
LTYPE
  2
double-dashed_triplicate-dotted
 70
   64
  3
-----  ---------  -  -  -  -----
 72
   65
 73
   10
 40
20.25
 49
6
 49
-1.5
 49
6
 49
-1.5
 49
0.25
 49
-1.5
 49
0.25
 49
-1.5
 49
0.25
 49
-1.5
  0
LTYPE
  2
undefined
 70
   64
  3
--------------------------------
 72
   65
 73
    0
 40
0
  0
LTYPE
  2
DASHED
 70
   64
  3
------     -----------     -----
 72
   65
 73
    2
 40
0.75
 49
0.5
 49
-0.25
  0
LTYPE
  2
CENTER
 70
   64
  3
----------    ----    ----------
 72
   65
 73
    4
 40
2
 49
1.25
 49
-0.25
 49
0.25
 49
-0.25
  0
ENDTAB
  0
TABLE
  2
STYLE
  5
3
100
AcDbSymbolTable
 70
     1
  0
STYLE
  5
10
100
AcDbSymbolTableRecord
100
AcDbTextStyleTableRecord
  2
STANDARD
 70
     0
 40
0.0
 41
1.0
 50
0.0
 71
     0
 42
0.2
  3
txt
  4
bigfont.shx
  0
STYLE
  5
26
100
AcDbSymbolTableRecord
100
AcDbTextStyleTableRecord
  2
TATEGAKI
 70
    68
 40
0.0
 41
1.0
 50
0.0
 71
     0
 42
1.0
  3
txt
  4
bigfont.shx
  0
ENDTAB
  0
TABLE
  2
LAYER
 70
    5
  0
LAYER
  2
_0-0_WAKU0
 70
   64
 62
    7
  6
CONTINUOUS
  0
LAYER
  2
_0-2_00
 70
   64
 62
    7
  6
CONTINUOUS
  0
LAYER
  2
_0-6_025
 70
   64
 62
    7
  6
CONTINUOUS
  0
LAYER
  2
_0-a_20
 70
   64
 62
    7
  6
CONTINUOUS
  0
LAYER
  2
ADD_LINE
 70
   64
 62
    7
  6
CONTINUOUS
  0
ENDTAB
  0
ENDSEC
  0
SECTION
  2
BLOCKS
  0
BLOCK
  2
-000-_D0
 70
   64
 10
0
 20
0
 30
0
  0
LINE
  8
_0-2_00
  6
CONTINUOUS
 62
    7
 10
63.955300353386093
 20
152.4524010830489
 11
46.908065779226618
 21
152.4524010830489
  0
LINE
  8
_0-2_00
  6
CONTINUOUS
 62
    7
 10
48.908065779226618
 20
152.4524010830489
 11
48.908065779226618
 21
133.95240108311981
  0
LINE
  8
_0-2_00
  6
CONTINUOUS
 62
    7
 10
49.508065803068483
 20
150.4524010830489
 11
48.908065779226618
 21
152.4524010830489
  0
LINE
  8
_0-2_00
  6
CONTINUOUS
 62
    7
 10
48.908065779226618
 20
152.4524010830489
 11
48.30806575538476
 21
150.4524010830489
  0
LINE
  8
_0-2_00
  6
CONTINUOUS
 62
    7
 10
49.508065803068483
 20
135.95240108311981
 11
48.908065779226618
 21
133.95240108311981
  0
LINE
  8
_0-2_00
  6
CONTINUOUS
 62
    7
 10
48.908065779226618
 20
133.95240108311981
 11
48.30806575538476
 21
135.95240108311981
  0
LINE
  8
_0-2_00
  6
CONTINUOUS
 62
    7
 10
63.955300353468118
 20
133.95240108311981
 11
46.908065779226618
 21
133.95240108311981
  0
TEXT
  8
_0-2_00
 62
    7
 10
48.408065779226618
 20
139.20740095910671
 40
3.0999999046325679
 41
1
 50
90
  1
370
  0
ENDBLK
  0
BLOCK
  2
-001-_D1
 70
   64
 10
0
 20
0
 30
0
  0
LINE
  8
_0-2_00
  6
CONTINUOUS
 62
    7
 10
63.755300259820842
 20
143.20240108308701
 11
55.147936160339533
 21
143.20240108308701
  0
LINE
  8
_0-2_00
  6
CONTINUOUS
 62
    7
 10
57.147936160339533
 20
143.20240108308701
 11
57.147936160339533
 21
130.45240108308701
  0
LINE
  8
_0-2_00
  6
CONTINUOUS
 62
    7
 10
57.747936184181391
 20
141.20240108308701
 11
57.147936160339533
 21
143.20240108308701
  0
LINE
  8
_0-2_00
  6
CONTINUOUS
 62
    7
 10
57.147936160339533
 20
143.20240108308701
 11
56.547936136497682
 21
141.20240108308701
  0
LINE
  8
_0-2_00
  6
CONTINUOUS
 62
    7
 10
57.747936184181391
 20
132.45240108308701
 11
57.147936160339533
 21
130.45240108308701
  0
LINE
  8
_0-2_00
  6
CONTINUOUS
 62
    7
 10
57.147936160339533
 20
130.45240108308701
 11
56.547936136497682
 21
132.45240108308701
  0
LINE
  8
_0-2_00
  6
CONTINUOUS
 62
    7
 10
62.255300353345589
 20
130.45240108308701
 11
55.147936160339533
 21
130.45240108308701
  0
TEXT
  8
_0-2_00
 62
    7
 10
56.647936160339533
 20
134.3425263127468
 40
3.0999999046325679
 41
1
 50
90
  1
255
  0
ENDBLK
  0
BLOCK
  2
-002-_D2
 70
   64
 10
0
 20
0
 30
0
  0
LINE
  8
_0-2_00
  6
CONTINUOUS
 62
    7
 10
63.055300365257672
 20
95.062208412566008
 11
103.0553003652708
 21
95.062208412566008
  0
LINE
  8
_0-2_00
  6
CONTINUOUS
 62
    7
 10
65.055300365257665
 20
95.662208436407866
 11
63.055300365257672
 21
95.062208412566008
  0
LINE
  8
_0-2_00
  6
CONTINUOUS
 62
    7
 10
63.055300365257672
 20
95.062208412566008
 11
65.055300365257665
 21
94.46220838872415
  0
LINE
  8
_0-2_00
  6
CONTINUOUS
 62
    7
 10
101.0553003652708
 20
95.662208436407866
 11
103.0553003652708
 21
95.062208412566008
  0
LINE
  8
_0-2_00
  6
CONTINUOUS
 62
    7
 10
103.0553003652708
 20
95.062208412566008
 11
101.0553003652708
 21
94.46220838872415
  0
LINE
  8
_0-2_00
  6
CONTINUOUS
 62
    7
 10
103.0553003652708
 20
78.70429258740613
 11
103.0553003652708
 21
97.062208412566008
  0
TEXT
  8
_0-2_00
 62
    7
 10
75.580300162608438
 20
95.562208412566008
 40
3.0999999046325679
 41
1
 50
0
  1
（800）
  0
ENDBLK
  0
BLOCK
  2
-003-_D3
 70
   64
 10
0
 20
0
 30
0
  0
LINE
  8
_0-2_00
  6
CONTINUOUS
 62
    7
 10
63.75530036529932
 20
81.960437627798186
 11
63.755300365298268
 21
89.985056944325819
  0
LINE
  8
_0-2_00
  6
CONTINUOUS
 62
    7
 10
60.755300365298531
 20
87.985056944325819
 11
77.209732182957055
 21
87.985056944325819
  0
LINE
  8
_0-2_00
  6
CONTINUOUS
 62
    7
 10
61.755300365298531
 20
88.585056968167677
 11
63.755300365298531
 21
87.985056944325819
  0
LINE
  8
_0-2_00
  6
CONTINUOUS
 62
    7
 10
63.755300365298531
 20
87.985056944325819
 11
61.755300365298531
 21
87.385056920483962
  0
LINE
  8
_0-2_00
  6
CONTINUOUS
 62
    7
 10
76.209732182957055
 20
88.585056968167677
 11
74.209732182957055
 21
87.985056944325819
  0
LINE
  8
_0-2_00
  6
CONTINUOUS
 62
    7
 10
74.209732182957055
 20
87.985056944325819
 11
76.209732182957055
 21
87.385056920483962
  0
LINE
  8
_0-2_00
  6
CONTINUOUS
 62
    7
 10
74.209732182957055
 20
81.600023106717529
 11
74.209732182957055
 21
89.985056944325819
  0
TEXT
  8
_0-2_00
 62
    7
 10
64.987516150150128
 20
88.485056944325819
 40
3.0999999046325679
 41
1
 50
0
  1
210
  0
ENDBLK
  0
BLOCK
  2
-004-_D4
 70
   64
 10
0
 20
0
 30
0
  0
LINE
  8
_0-2_00
  6
CONTINUOUS
 62
    7
 10
54.160784590906623
 20
42.4042925754664
 11
54.160784590906623
 21
61.404292575437552
  0
LINE
  8
_0-2_00
  6
CONTINUOUS
 62
    7
 10
53.560784567064772
 20
44.4042925754664
 11
54.160784590906623
 21
42.4042925754664
  0
LINE
  8
_0-2_00
  6
CONTINUOUS
 62
    7
 10
54.160784590906623
 20
42.4042925754664
 11
54.760784614748481
 21
44.4042925754664
  0
LINE
  8
_0-2_00
  6
CONTINUOUS
 62
    7
 10
53.560784567064772
 20
59.404292575437552
 11
54.160784590906623
 21
61.404292575437552
  0
LINE
  8
_0-2_00
  6
CONTINUOUS
 62
    7
 10
54.160784590906623
 20
61.404292575437552
 11
54.760784614748481
 21
59.404292575437552
  0
LINE
  8
_0-2_00
  6
CONTINUOUS
 62
    7
 10
64.382522078176734
 20
61.404292575437552
 11
52.160784590906623
 21
61.404292575437552
  0
TEXT
  8
_0-2_00
 62
    7
 10
53.660784590906623
 20
51.337399064734157
 40
3.0999999046325679
 41
1
 50
90
  1
380
  0
ENDBLK
  0
BLOCK
  2
-005-_D5
 70
   64
 10
0
 20
0
 30
0
  0
LINE
  8
_0-2_00
  6
CONTINUOUS
 62
    7
 10
64.382522078176734
 20
61.404292575437552
 11
52.160784590906623
 21
61.404292575437552
  0
LINE
  8
_0-2_00
  6
CONTINUOUS
 62
    7
 10
54.160784590906623
 20
61.404292575437552
 11
54.160784590906623
 21
81.654292575434852
  0
LINE
  8
_0-2_00
  6
CONTINUOUS
 62
    7
 10
53.560784567064772
 20
63.404292575437552
 11
54.160784590906623
 21
61.404292575437552
  0
LINE
  8
_0-2_00
  6
CONTINUOUS
 62
    7
 10
54.160784590906623
 20
61.404292575437552
 11
54.760784614748481
 21
63.404292575437552
  0
LINE
  8
_0-2_00
  6
CONTINUOUS
 62
    7
 10
53.560784567064772
 20
79.654292575434852
 11
54.160784590906623
 21
81.654292575434852
  0
LINE
  8
_0-2_00
  6
CONTINUOUS
 62
    7
 10
54.160784590906623
 20
81.654292575434852
 11
54.760784614748481
 21
79.654292575434852
  0
TEXT
  8
_0-2_00
 62
    7
 10
53.660784590906623
 20
67.534292451458541
 40
3.0999999046325679
 41
1
 50
90
  1
405
  0
ENDBLK
  0
BLOCK
  2
-006-_D6
 70
   64
 10
0
 20
0
 30
0
  0
LINE
  8
_0-2_00
  6
CONTINUOUS
 62
    7
 10
62.255300353372128
 20
42.4042925754664
 11
43.87020635151864
 21
42.4042925754664
  0
LINE
  8
_0-2_00
  6
CONTINUOUS
 62
    7
 10
45.87020635151864
 20
42.4042925754664
 11
45.87020635151864
 21
81.654292575434852
  0
LINE
  8
_0-2_00
  6
CONTINUOUS
 62
    7
 10
45.270206327676782
 20
44.4042925754664
 11
45.87020635151864
 21
42.4042925754664
  0
LINE
  8
_0-2_00
  6
CONTINUOUS
 62
    7
 10
45.87020635151864
 20
42.4042925754664
 11
46.470206375360497
 21
44.4042925754664
  0
LINE
  8
_0-2_00
  6
CONTINUOUS
 62
    7
 10
45.270206327676782
 20
79.654292575434852
 11
45.87020635151864
 21
81.654292575434852
  0
LINE
  8
_0-2_00
  6
CONTINUOUS
 62
    7
 10
45.87020635151864
 20
81.654292575434852
 11
46.470206375360497
 21
79.654292575434852
  0
LINE
  8
_0-2_00
  6
CONTINUOUS
 62
    7
 10
67.455300353299108
 20
81.654292575434852
 11
43.87020635151864
 21
81.654292575434852
  0
TEXT
  8
_0-2_00
 62
    7
 10
45.37020635151864
 20
58.034292451472972
 40
3.0999999046325679
 41
1
 50
90
  1
785
  0
ENDBLK
  0
BLOCK
  2
-007-_D7
 70
   64
 10
0
 20
0
 30
0
  0
LINE
  8
_0-2_00
  6
CONTINUOUS
 62
    7
 10
110.5086326788776
 20
42.404292575492462
 11
110.5086326788776
 21
60.904292575438049
  0
LINE
  8
_0-2_00
  6
CONTINUOUS
 62
    7
 10
109.9086326550358
 20
44.404292575492462
 11
110.5086326788776
 21
42.404292575492462
  0
LINE
  8
_0-2_00
  6
CONTINUOUS
 62
    7
 10
110.5086326788776
 20
42.404292575492462
 11
111.1086327027195
 21
44.404292575492462
  0
LINE
  8
_0-2_00
  6
CONTINUOUS
 62
    7
 10
109.9086326550358
 20
58.904292575438049
 11
110.5086326788776
 21
60.904292575438049
  0
LINE
  8
_0-2_00
  6
CONTINUOUS
 62
    7
 10
110.5086326788776
 20
60.904292575438049
 11
111.1086327027195
 21
58.904292575438049
  0
LINE
  8
_0-2_00
  6
CONTINUOUS
 62
    7
 10
100.6053003772026
 20
60.904292575438049
 11
112.5086326788776
 21
60.904292575438049
  0
TEXT
  8
_0-2_00
 62
    7
 10
110.0086326788776
 20
47.659292451487602
 40
3.0999999046325679
 41
1
 50
90
  1
370
  0
ENDBLK
  0
BLOCK
  2
-008-_D8
 70
   64
 10
0
 20
0
 30
0
  0
LINE
  8
_0-2_00
  6
CONTINUOUS
 62
    7
 10
124.7367467818341
 20
42.404292575492462
 11
124.7367467818341
 21
77.904292575485201
  0
LINE
  8
_0-2_00
  6
CONTINUOUS
 62
    7
 10
124.1367467579922
 20
44.404292575492462
 11
124.7367467818341
 21
42.404292575492462
  0
LINE
  8
_0-2_00
  6
CONTINUOUS
 62
    7
 10
124.7367467818341
 20
42.404292575492462
 11
125.3367468056759
 21
44.404292575492462
  0
LINE
  8
_0-2_00
  6
CONTINUOUS
 62
    7
 10
124.1367467579922
 20
75.904292575485201
 11
124.7367467818341
 21
77.904292575485201
  0
LINE
  8
_0-2_00
  6
CONTINUOUS
 62
    7
 10
124.7367467818341
 20
77.904292575485201
 11
125.3367468056759
 21
75.904292575485201
  0
LINE
  8
_0-2_00
  6
CONTINUOUS
 62
    7
 10
103.8553003771917
 20
77.904292575485201
 11
126.7367467818341
 21
77.904292575485201
  0
TEXT
  8
_0-2_00
 62
    7
 10
124.2367467818341
 20
52.679292372833032
 40
3.0999999046325679
 41
1
 50
90
  1
（710）
  0
ENDBLK
  0
BLOCK
  2
-009-_D9
 70
   64
 10
0
 20
0
 30
0
  0
LINE
  8
_0-2_00
  6
CONTINUOUS
 62
    7
 10
45.87020635151864
 20
45.4042925754664
 11
45.87020635151864
 21
30.4042925754778
  0
LINE
  8
_0-2_00
  6
CONTINUOUS
 62
    7
 10
46.470206375360497
 20
44.4042925754664
 11
45.87020635151864
 21
42.4042925754664
  0
LINE
  8
_0-2_00
  6
CONTINUOUS
 62
    7
 10
45.87020635151864
 20
42.4042925754664
 11
45.270206327676782
 21
44.4042925754664
  0
LINE
  8
_0-2_00
  6
CONTINUOUS
 62
    7
 10
46.470206375360497
 20
31.4042925754778
 11
45.87020635151864
 21
33.404292575477797
  0
LINE
  8
_0-2_00
  6
CONTINUOUS
 62
    7
 10
45.87020635151864
 20
33.404292575477797
 11
45.270206327676782
 21
31.4042925754778
  0
LINE
  8
_0-2_00
  6
CONTINUOUS
 62
    7
 10
86.505300353377777
 20
33.404292575477797
 11
43.87020635151864
 21
33.404292575477797
  0
TEXT
  8
_0-2_00
 62
    7
 10
45.37020635151864
 20
30.42929237281631
 40
3.0999999046325679
 41
1
 50
90
  1
（180）
  0
ENDBLK
  0
BLOCK
  2
-010-_D10
 70
   64
 10
0
 20
0
 30
0
  0
LINE
  8
_0-2_00
  6
CONTINUOUS
 62
    7
 10
63.055300365293057
 20
41.604292563545457
 11
63.055300365293057
 21
17.804711789396109
  0
LINE
  8
_0-2_00
  6
CONTINUOUS
 62
    7
 10
56.04014695724252
 20
19.804711789396109
 11
70.255300365256488
 21
19.804711789396109
  0
LINE
  8
_0-2_00
  6
CONTINUOUS
 62
    7
 10
61.055300365293057
 20
20.40471181323797
 11
63.055300365293057
 21
19.804711789396109
  0
LINE
  8
_0-2_00
  6
CONTINUOUS
 62
    7
 10
63.055300365293057
 20
19.804711789396109
 11
61.055300365293057
 21
19.204711765554251
  0
LINE
  8
_0-2_00
  6
CONTINUOUS
 62
    7
 10
69.255300365256488
 20
20.40471181323797
 11
67.255300365256488
 21
19.804711789396109
  0
LINE
  8
_0-2_00
  6
CONTINUOUS
 62
    7
 10
67.255300365256488
 20
19.804711789396109
 11
69.255300365256488
 21
19.204711765554251
  0
LINE
  8
_0-2_00
  6
CONTINUOUS
 62
    7
 10
67.255300365256488
 20
31.99979531393252
 11
67.255300365256488
 21
17.804711789396109
  0
TEXT
  8
_0-2_00
 62
    7
 10
56.230147035510228
 20
20.304711789396109
 40
3.0999999046325679
 41
1
 50
0
  1
75
  0
ENDBLK
  0
BLOCK
  2
-011-_D11
 70
   64
 10
0
 20
0
 30
0
  0
LINE
  8
_0-2_00
  6
CONTINUOUS
 62
    7
 10
86.064638538932911
 20
33.404292575493884
 11
70.511866723459093
 21
33.404292575493891
  0
ARC
  8
_0-2_00
  6
CONTINUOUS
 62
    7
 10
87.305300365333267
 20
33.404292575493891
 40
14.793433641874181
 50
168.38083553146819
 51
216.6191644684038
  0
LINE
  8
_0-2_00
  6
CONTINUOUS
 62
    7
 10
73.111866747300951
 20
35.404292575493891
 11
72.511866723459093
 21
33.404292575493891
  0
LINE
  8
_0-2_00
  6
CONTINUOUS
 62
    7
 10
72.511866723459093
 20
33.404292575493891
 11
71.911866699617235
 21
35.404292575493891
  0
LINE
  8
_0-2_00
  6
CONTINUOUS
 62
    7
 10
75.286917475986755
 20
25.593272757662621
 11
73.897896258678784
 21
27.1523173646186
  0
LINE
  8
_0-2_00
  6
CONTINUOUS
 62
    7
 10
73.897896258678784
 20
27.1523173646186
 11
74.199348088325522
 21
25.086130823424199
  0
TEXT
  8
_0-2_00
 62
    7
 10
74.066939990206322
 20
22.459552729907362
 40
3.0999999046325679
 41
1
 50
102.49999999993597
  1
25°以上
  0
ENDBLK
  0
BLOCK
  2
-012-M0
 70
   64
 10
0
 20
0
 30
0
  0
LINE
  8
_0-2_00
  6
CONTINUOUS
 62
    7
 10
0
 20
0
 11
8.5010067633661954
 21
8.0989393312974585
  0
LINE
  8
_0-2_00
  6
CONTINUOUS
 62
    7
 10
1.034175950237193
 20
1.813968062718093
 11
0
 21
0
  0
LINE
  8
_0-2_00
  6
CONTINUOUS
 62
    7
 10
0
 20
0
 11
1.861909151266655
 21
0.9451424977429134
  0
LINE
  8
_0-2_00
  6
CONTINUOUS
 62
    7
 10
8.5010067633661723
 20
8.0989393312974354
 11
50.099007706430861
 21
8.0989393312974354
  0
TEXT
  8
_0-2_00
 62
    7
 10
10.23900673845143
 20
8.5989393312974354
 40
2.7999999523162842
 41
1
 50
0
  1
※ワンタッチ紙巻器「注1」
  0
ENDBLK
  0
BLOCK
  2
-013-M1
 70
   64
 10
0
 20
0
 30
0
  0
LINE
  8
_0-2_00
  6
CONTINUOUS
 62
    7
 10
0
 20
0
 11
8.2714978748626198
 21
-4.0766588997452882
  0
LINE
  8
_0-2_00
  6
CONTINUOUS
 62
    7
 10
2.0591992667002552
 20
-0.3459745780131288
 11
0
 21
0
  0
LINE
  8
_0-2_00
  6
CONTINUOUS
 62
    7
 10
0
 20
0
 11
1.5287032586954119
 21
-1.42234537840296
  0
LINE
  8
_0-2_00
  6
CONTINUOUS
 62
    7
 10
8.2714978748625985
 20
-4.0766588997452944
 11
40.44949859262173
 21
-4.0766588997452944
  0
TEXT
  8
_0-2_00
 62
    7
 10
10.009497849947859
 20
-3.5766588997452948
 40
2.7999999523162842
 41
1
 50
0
  1
※自在エルボ「注1」
  0
ENDBLK
  0
BLOCK
  2
-014-M2
 70
   64
 10
0
 20
0
 30
0
  0
LINE
  8
_0-2_00
  6
CONTINUOUS
 62
    7
 10
0
 20
0
 11
16.882428398522119
 21
-9.5535558441591562
  0
LINE
  8
_0-2_00
  6
CONTINUOUS
 62
    7
 10
2.036125315905486
 20
-0.4628106810986705
 11
0
 21
0
  0
LINE
  8
_0-2_00
  6
CONTINUOUS
 62
    7
 10
0
 20
0
 11
1.445126232000616
 21
-1.5071861869702541
  0
LINE
  8
_0-2_00
  6
CONTINUOUS
 62
    7
 10
16.882428398522102
 20
-9.5535558441591562
 11
61.620429416688637
 21
-9.5535558441591562
  0
TEXT
  8
_0-2_00
 62
    7
 10
18.620428373607361
 20
-9.0535558441591562
 40
2.7999999523162842
 41
1
 50
0
  1
※汚水管ＶＵ－１００「注1」
  0
ENDBLK
  0
BLOCK
  2
-015-M3
 70
   64
 10
0
 20
0
 30
0
  0
LINE
  8
_0-2_00
  6
CONTINUOUS
 62
    7
 10
0
 20
0
 11
-18.708722554545378
 21
-17.000075148164481
  0
LINE
  8
_0-2_00
  6
CONTINUOUS
 62
    7
 10
-1.0766878036844889
 20
-1.789062157111178
 11
0
 21
0
  0
LINE
  8
_0-2_00
  6
CONTINUOUS
 62
    7
 10
0
 20
0
 11
-1.8836910248622729
 21
-0.9009484732566842
  0
LINE
  8
_0-2_00
  6
CONTINUOUS
 62
    7
 10
-18.708722554545378
 20
-17.000075148164481
 11
-48.09472313294885
 21
-17.000075148164481
  0
TEXT
  8
_0-2_00
 62
    7
 10
-48.09472313294885
 20
-16.500075148164481
 40
3.0999999046325679
 41
1
 50
0
  1
側溝又は浸透桝へ
  0
ENDBLK
  0
BLOCK
  2
-016-M4
 70
   64
 10
0
 20
0
 30
0
  0
LINE
  8
_0-2_00
  6
CONTINUOUS
 62
    7
 10
0
 20
0
 11
-26.85961245755367
 21
-2.3449573423510168
  0
LINE
  8
_0-2_00
  6
CONTINUOUS
 62
    7
 10
-1.9402372371135259
 20
-0.7716731771471001
 11
0
 21
0
  0
LINE
  8
_0-2_00
  6
CONTINUOUS
 62
    7
 10
0
 20
0
 11
-2.0446053045485102
 21
0.4237796328545355
  0
LINE
  8
_0-2_00
  6
CONTINUOUS
 62
    7
 10
-26.859612457553681
 20
-2.3449573423510288
 11
-49.962276623781442
 21
-2.3449573423510288
  0
TEXT
  8
_0-2_00
 62
    7
 10
-38.845612642566493
 20
-1.8449573423510279
 40
3.0999999046325679
 41
1
 50
0
  1
排水管
  0
ENDBLK
  0
BLOCK
  2
-017-_D12
 70
   64
 10
0
 20
0
 30
0
  0
LINE
  8
_0-2_00
  6
CONTINUOUS
 62
    7
 10
202.0599122599248
 20
41.604292563578213
 11
202.0599122599248
 21
28.925841377498781
  0
LINE
  8
_0-2_00
  6
CONTINUOUS
 62
    7
 10
199.0599122599248
 20
30.925841377498781
 11
213.5599122599248
 21
30.925841377498781
  0
LINE
  8
_0-2_00
  6
CONTINUOUS
 62
    7
 10
200.0599122599248
 20
31.525841401340639
 11
202.0599122599248
 21
30.925841377498781
  0
LINE
  8
_0-2_00
  6
CONTINUOUS
 62
    7
 10
202.0599122599248
 20
30.925841377498781
 11
200.0599122599248
 21
30.32584135365693
  0
LINE
  8
_0-2_00
  6
CONTINUOUS
 62
    7
 10
212.5599122599248
 20
31.525841401340639
 11
210.5599122599248
 21
30.925841377498781
  0
LINE
  8
_0-2_00
  6
CONTINUOUS
 62
    7
 10
210.5599122599248
 20
30.925841377498781
 11
212.5599122599248
 21
30.32584135365693
  0
LINE
  8
_0-2_00
  6
CONTINUOUS
 62
    7
 10
210.5599122599248
 20
41.604292563564151
 11
210.5599122599248
 21
28.925841377498781
  0
TEXT
  8
_0-2_00
 62
    7
 10
202.31491213594711
 20
31.425841377498781
 40
3.0999999046325679
 41
1
 50
0
  1
170
  0
ENDBLK
  0
BLOCK
  2
-018-M5
 70
   64
 10
0
 20
0
 30
0
  0
LINE
  8
_0-2_00
  6
CONTINUOUS
 62
    7
 10
0
 20
0
 11
19.006882370249919
 21
-15.31666012082631
  0
LINE
  8
_0-2_00
  6
CONTINUOUS
 62
    7
 10
1.933765845073848
 20
-0.7877497604163735
 11
0
 21
0
  0
LINE
  8
_0-2_00
  6
CONTINUOUS
 62
    7
 10
0
 20
0
 11
1.1808046070723079
 21
-1.7221209331887939
  0
LINE
  8
_0-2_00
  6
CONTINUOUS
 62
    7
 10
19.00688237024989
 20
-15.31666012082635
 11
41.432882791297097
 21
-15.31666012082635
  0
TEXT
  8
_0-2_00
 62
    7
 10
20.932882314459949
 20
-14.81666012082635
 40
3.0999999046325679
 41
1
 50
0
  1
床穴加工寸法
  0
ENDBLK
  0
BLOCK
  2
-019-M6
 70
   64
 10
0
 20
0
 30
0
  0
LINE
  8
_0-2_00
  6
CONTINUOUS
 62
    7
 10
0
 20
0
 11
17.476730303444729
 21
-22.266369371988041
  0
LINE
  8
_0-2_00
  6
CONTINUOUS
 62
    7
 10
1.7068237467642899
 20
-1.202810345021917
 11
0
 21
0
  0
LINE
  8
_0-2_00
  6
CONTINUOUS
 62
    7
 10
0
 20
0
 11
0.7628654644041522
 21
-1.943717137813439
  0
LINE
  8
_0-2_00
  6
CONTINUOUS
 62
    7
 10
17.47673030344469
 20
-22.26636937198808
 11
46.862730881848172
 21
-22.26636937198808
  0
TEXT
  8
_0-2_00
 62
    7
 10
19.402730247654748
 20
-21.76636937198808
 40
3.0999999046325679
 41
1
 50
0
  1
床フランジ取付穴
  0
ENDBLK
  0
BLOCK
  2
-020-_D13
 70
   64
 10
0
 20
0
 30
0
  0
LINE
  8
_0-2_00
  6
CONTINUOUS
 62
    7
 10
90.605300377202866
 20
147.45240108311179
 11
112.2404982046193
 21
147.45240108311179
  0
LINE
  8
_0-2_00
  6
CONTINUOUS
 62
    7
 10
110.2404982046193
 20
150.45240108311179
 11
110.2404982046193
 21
135.95240108311179
  0
LINE
  8
_0-2_00
  6
CONTINUOUS
 62
    7
 10
110.8404982284612
 20
149.45240108311179
 11
110.2404982046193
 21
147.45240108311179
  0
LINE
  8
_0-2_00
  6
CONTINUOUS
 62
    7
 10
110.2404982046193
 20
147.45240108311179
 11
109.6404981807775
 21
149.45240108311179
  0
LINE
  8
_0-2_00
  6
CONTINUOUS
 62
    7
 10
110.8404982284612
 20
136.95240108311179
 11
110.2404982046193
 21
138.95240108311179
  0
LINE
  8
_0-2_00
  6
CONTINUOUS
 62
    7
 10
110.2404982046193
 20
138.95240108311179
 11
109.6404981807775
 21
136.95240108311179
  0
LINE
  8
_0-2_00
  6
CONTINUOUS
 62
    7
 10
90.605300377202866
 20
138.95240108311179
 11
112.2404982046193
 21
138.95240108311179
  0
TEXT
  8
_0-2_00
 62
    7
 10
109.7404982046193
 20
139.59240097939971
 40
2.7999999523162842
 41
1
 50
90
  1
170
  0
ENDBLK
  0
BLOCK
  2
-021-_D14
 70
   64
 10
0
 20
0
 30
0
  0
LINE
  8
_0-2_00
  6
CONTINUOUS
 62
    7
 10
63.055300365271897
 20
119.7762074416069
 11
63.055300365271897
 21
110.3725333264595
  0
LINE
  8
_0-2_00
  6
CONTINUOUS
 62
    7
 10
63.055300365271897
 20
112.3725333264595
 11
87.305300365281937
 21
112.3725333264595
  0
LINE
  8
_0-2_00
  6
CONTINUOUS
 62
    7
 10
65.055300365271904
 20
112.9725333503013
 11
63.055300365271897
 21
112.3725333264595
  0
LINE
  8
_0-2_00
  6
CONTINUOUS
 62
    7
 10
63.055300365271897
 20
112.3725333264595
 11
65.055300365271904
 21
111.7725333026176
  0
LINE
  8
_0-2_00
  6
CONTINUOUS
 62
    7
 10
85.305300365281937
 20
112.9725333503013
 11
87.305300365281937
 21
112.3725333264595
  0
LINE
  8
_0-2_00
  6
CONTINUOUS
 62
    7
 10
87.305300365281937
 20
112.3725333264595
 11
85.305300365281937
 21
111.7725333026176
  0
LINE
  8
_0-2_00
  6
CONTINUOUS
 62
    7
 10
87.305300365281937
 20
131.22532129840769
 11
87.305300365281937
 21
110.3725333264595
  0
TEXT
  8
_0-2_00
 62
    7
 10
71.185300241299245
 20
112.8725333264595
 40
3.0999999046325679
 41
1
 50
0
  1
485
  0
ENDBLK
  0
BLOCK
  2
-022-_D15
 70
   64
 10
0
 20
0
 30
0
  0
LINE
  8
_0-2_00
  6
CONTINUOUS
 62
    7
 10
84.805300365281937
 20
138.15240107119089
 11
84.805300365281937
 21
119.3166487790654
  0
LINE
  8
_0-2_00
  6
CONTINUOUS
 62
    7
 10
77.885574470353973
 20
121.3166487790654
 11
87.305300365281937
 21
121.3166487790654
  0
LINE
  8
_0-2_00
  6
CONTINUOUS
 62
    7
 10
82.805300365281937
 20
121.9166488029073
 11
84.805300365281937
 21
121.3166487790654
  0
LINE
  8
_0-2_00
  6
CONTINUOUS
 62
    7
 10
84.805300365281937
 20
121.3166487790654
 11
82.805300365281937
 21
120.7166487552235
  0
CIRCLE
  8
_0-2_00
  6
CONTINUOUS
 62
    7
 10
87.305300365281937
 20
121.3166487790654
 40
0.25
  0
CIRCLE
  8
_0-2_00
  6
CONTINUOUS
 62
    7
 10
87.305300365281937
 20
121.3166487790654
 40
0.25
  0
TEXT
  8
_0-2_00
 62
    7
 10
78.075574304024627
 20
121.8166487790654
 40
3.0999999046325679
 41
1
 50
0
  1
50
  0
ENDBLK
  0
BLOCK
  2
-023-_D16
 70
   64
 10
0
 20
0
 30
0
  0
LINE
  8
_0-2_00
  6
CONTINUOUS
 62
    7
 10
87.305300365281937
 20
121.3166487790654
 11
96.960677753282425
 21
121.3166487790654
  0
CIRCLE
  8
_0-2_00
  6
CONTINUOUS
 62
    7
 10
87.305300365281937
 20
121.3166487790654
 40
0.25
  0
CIRCLE
  8
_0-2_00
  6
CONTINUOUS
 62
    7
 10
87.305300365281937
 20
121.3166487790654
 40
0.25
  0
LINE
  8
_0-2_00
  6
CONTINUOUS
 62
    7
 10
91.805300365281937
 20
121.9166488029073
 11
89.805300365281937
 21
121.3166487790654
  0
LINE
  8
_0-2_00
  6
CONTINUOUS
 62
    7
 10
89.805300365281937
 20
121.3166487790654
 11
91.805300365281937
 21
120.7166487552235
  0
LINE
  8
_0-2_00
  6
CONTINUOUS
 62
    7
 10
89.805300365281937
 20
138.15240107119089
 11
89.805300365281937
 21
119.3166487790654
  0
TEXT
  8
_0-2_00
 62
    7
 10
91.570677492443451
 20
121.8166487790654
 40
3.0999999046325679
 41
1
 50
0
  1
50
  0
ENDBLK
  0
BLOCK
  2
-024-_D17
 70
   64
 10
0
 20
0
 30
0
  0
LINE
  8
_0-2_00
  6
CONTINUOUS
 62
    7
 10
77.255300353361008
 20
139.70240108311179
 11
70.250193783491284
 21
139.70240108311179
  0
LINE
  8
_0-2_00
  6
CONTINUOUS
 62
    7
 10
70.250193783491284
 20
136.70240108311179
 11
70.250193783491284
 21
149.70240108311179
  0
LINE
  8
_0-2_00
  6
CONTINUOUS
 62
    7
 10
69.650193759649426
 20
137.70240108311179
 11
70.250193783491284
 21
139.70240108311179
  0
LINE
  8
_0-2_00
  6
CONTINUOUS
 62
    7
 10
70.250193783491284
 20
139.70240108311179
 11
70.850193807333142
 21
137.70240108311179
  0
LINE
  8
_0-2_00
  6
CONTINUOUS
 62
    7
 10
69.650193759649426
 20
148.70240108311179
 11
70.250193783491284
 21
146.70240108311179
  0
LINE
  8
_0-2_00
  6
CONTINUOUS
 62
    7
 10
70.250193783491284
 20
146.70240108311179
 11
70.850193807333142
 21
148.70240108311179
  0
LINE
  8
_0-2_00
  6
CONTINUOUS
 62
    7
 10
77.255300353361008
 20
146.70240108311179
 11
70.250193783491284
 21
146.70240108311179
  0
TEXT
  8
_0-2_00
 62
    7
 10
69.750193783491284
 20
139.20740095913411
 40
3.0999999046325679
 41
1
 50
90
  1
140
  0
ENDBLK
  0
BLOCK
  2
-025-_D18
 70
   64
 10
0
 20
0
 30
0
  0
LINE
  8
_0-2_00
  6
CONTINUOUS
 62
    7
 10
52.632724414638979
 20
121.3166487790654
 11
71.00530036526807
 21
121.3166487790654
  0
LINE
  8
_0-2_00
  6
CONTINUOUS
 62
    7
 10
61.055300365261537
 20
121.9166488029073
 11
63.055300365261537
 21
121.3166487790654
  0
LINE
  8
_0-2_00
  6
CONTINUOUS
 62
    7
 10
63.055300365261537
 20
121.3166487790654
 11
61.055300365261537
 21
120.7166487552235
  0
LINE
  8
_0-2_00
  6
CONTINUOUS
 62
    7
 10
70.00530036526807
 20
121.9166488029073
 11
68.00530036526807
 21
121.3166487790654
  0
LINE
  8
_0-2_00
  6
CONTINUOUS
 62
    7
 10
68.00530036526807
 20
121.3166487790654
 11
70.00530036526807
 21
120.7166487552235
  0
LINE
  8
_0-2_00
  6
CONTINUOUS
 62
    7
 10
68.00530036526807
 20
132.5251799856278
 11
68.00530036526807
 21
119.3166487790654
  0
TEXT
  8
_0-2_00
 62
    7
 10
52.802724064671153
 20
121.8166487790654
 40
2.7999999523162842
 41
1
 50
0
  1
100
  0
ENDBLK
  0
BLOCK
  2
-026-_D19
 70
   64
 10
0
 20
0
 30
0
  0
LINE
  8
_0-2_00
  6
CONTINUOUS
 62
    7
 10
89.105300377193117
 20
134.32740108318669
 11
120.4075652947603
 21
134.32740108318669
  0
LINE
  8
_0-2_00
  6
CONTINUOUS
 62
    7
 10
118.4075652947603
 20
134.32740108318669
 11
118.4075652947603
 21
152.07740108318669
  0
LINE
  8
_0-2_00
  6
CONTINUOUS
 62
    7
 10
117.8075652709184
 20
136.32740108318669
 11
118.4075652947603
 21
134.32740108318669
  0
LINE
  8
_0-2_00
  6
CONTINUOUS
 62
    7
 10
118.4075652947603
 20
134.32740108318669
 11
119.0075653186021
 21
136.32740108318669
  0
LINE
  8
_0-2_00
  6
CONTINUOUS
 62
    7
 10
117.8075652709184
 20
150.07740108318669
 11
118.4075652947603
 21
152.07740108318669
  0
LINE
  8
_0-2_00
  6
CONTINUOUS
 62
    7
 10
118.4075652947603
 20
152.07740108318669
 11
119.0075653186021
 21
150.07740108318669
  0
LINE
  8
_0-2_00
  6
CONTINUOUS
 62
    7
 10
89.105300377193117
 20
152.07740108318669
 11
120.4075652947603
 21
152.07740108318669
  0
TEXT
  8
_0-2_00
 62
    7
 10
117.9075652947603
 20
139.20740095920911
 40
3.0999999046325679
 41
1
 50
90
  1
355
  0
ENDBLK
  0
BLOCK
  2
-027-_D20
 70
   64
 10
0
 20
0
 30
0
  0
LINE
  8
_0-2_00
  6
CONTINUOUS
 62
    7
 10
63.05530036528215
 20
166.5024010950286
 11
63.05530036528215
 21
173.389693447724
  0
LINE
  8
_0-2_00
  6
CONTINUOUS
 62
    7
 10
48.098939548326577
 20
171.389693447724
 11
66.755300365306624
 21
171.389693447724
  0
LINE
  8
_0-2_00
  6
CONTINUOUS
 62
    7
 10
61.05530036528215
 20
171.9896934715658
 11
63.05530036528215
 21
171.389693447724
  0
LINE
  8
_0-2_00
  6
CONTINUOUS
 62
    7
 10
63.05530036528215
 20
171.389693447724
 11
61.05530036528215
 21
170.78969342388211
  0
LINE
  8
_0-2_00
  6
CONTINUOUS
 62
    7
 10
65.755300365306624
 20
171.9896934715658
 11
63.755300365306617
 21
171.389693447724
  0
LINE
  8
_0-2_00
  6
CONTINUOUS
 62
    7
 10
63.755300365306617
 20
171.389693447724
 11
65.755300365306624
 21
170.78969342388211
  0
LINE
  8
_0-2_00
  6
CONTINUOUS
 62
    7
 10
63.755300365306617
 20
152.252401094974
 11
63.755300365306617
 21
173.389693447724
  0
TEXT
  8
_0-2_00
 62
    7
 10
48.288940015645707
 20
171.889693447724
 40
3.0999999046325679
 41
1
 50
0
  1
(10)
  0
ENDBLK
  0
BLOCK
  2
-028-_D21
 70
   64
 10
0
 20
0
 30
0
  0
LINE
  8
_0-2_00
  6
CONTINUOUS
 62
    7
 10
63.755300365306617
 20
152.252401094974
 11
63.755300365306617
 21
173.389693447724
  0
LINE
  8
_0-2_00
  6
CONTINUOUS
 62
    7
 10
63.755300365306617
 20
171.389693447724
 11
103.0553003652722
 21
171.389693447724
  0
LINE
  8
_0-2_00
  6
CONTINUOUS
 62
    7
 10
65.755300365306624
 20
171.9896934715658
 11
63.755300365306617
 21
171.389693447724
  0
LINE
  8
_0-2_00
  6
CONTINUOUS
 62
    7
 10
63.755300365306617
 20
171.389693447724
 11
65.755300365306624
 21
170.78969342388211
  0
LINE
  8
_0-2_00
  6
CONTINUOUS
 62
    7
 10
102.0553003652722
 20
171.9896934715658
 11
100.0553003652722
 21
171.389693447724
  0
LINE
  8
_0-2_00
  6
CONTINUOUS
 62
    7
 10
100.0553003652722
 20
171.389693447724
 11
102.0553003652722
 21
170.78969342388211
  0
LINE
  8
_0-2_00
  6
CONTINUOUS
 62
    7
 10
100.0553003652722
 20
144.0024010950327
 11
100.0553003652722
 21
173.389693447724
  0
TEXT
  8
_0-2_00
 62
    7
 10
76.542703576239688
 20
171.889693447724
 40
3.0999999046325679
 41
1
 50
0
  1
726
  0
ENDBLK
  0
BLOCK
  2
-029-_D22
 70
   64
 10
0
 20
0
 30
0
  0
LINE
  8
_0-2_00
  6
CONTINUOUS
 62
    7
 10
100.0553003652722
 20
144.0024010950327
 11
100.0553003652722
 21
156.8456117462166
  0
LINE
  8
_0-2_00
  6
CONTINUOUS
 62
    7
 10
100.0553003652722
 20
154.8456117462166
 11
78.055300365281937
 21
154.8456117462166
  0
LINE
  8
_0-2_00
  6
CONTINUOUS
 62
    7
 10
98.055300365272188
 20
154.24561172237469
 11
100.0553003652722
 21
154.8456117462166
  0
LINE
  8
_0-2_00
  6
CONTINUOUS
 62
    7
 10
100.0553003652722
 20
154.8456117462166
 11
98.055300365272188
 21
155.44561177005841
  0
LINE
  8
_0-2_00
  6
CONTINUOUS
 62
    7
 10
80.055300365281937
 20
154.24561172237469
 11
78.055300365281937
 21
154.8456117462166
  0
LINE
  8
_0-2_00
  6
CONTINUOUS
 62
    7
 10
78.055300365281937
 20
154.8456117462166
 11
80.055300365281937
 21
155.44561177005841
  0
LINE
  8
_0-2_00
  6
CONTINUOUS
 62
    7
 10
78.055300365281937
 20
148.2364746579799
 11
78.055300365281937
 21
156.8456117462166
  0
TEXT
  8
_0-2_00
 62
    7
 10
85.445300261564967
 20
155.3456117462166
 40
2.7999999523162842
 41
1
 50
0
  1
440
  0
ENDBLK
  0
BLOCK
  2
-030-M7
 70
   64
 10
0
 20
0
 30
0
  0
LINE
  8
_0-2_00
  6
CONTINUOUS
 62
    7
 10
0
 20
0
 11
-14.64033860154289
 21
-6.9939928505483984
  0
LINE
  8
_0-2_00
  6
CONTINUOUS
 62
    7
 10
-1.546012414964939
 20
-1.4035118957046671
 11
0
 21
0
  0
LINE
  8
_0-2_00
  6
CONTINUOUS
 62
    7
 10
0
 20
0
 11
-2.0632829749426911
 21
-0.3207232357062245
  0
LINE
  8
_0-2_00
  6
CONTINUOUS
 62
    7
 10
-14.64033860154289
 20
-6.9939928505483984
 11
-26.11833885438579
 21
-6.9939928505483984
  0
TEXT
  8
_0-2_00
 62
    7
 10
-26.11833885438579
 20
-6.4939928505483984
 40
2.7999999523162842
 41
1
 50
0
  1
R1/2
  0
ENDBLK
  0
BLOCK
  2
-031-_D23
 70
   64
 10
0
 20
0
 30
0
  0
LINE
  8
_0-2_00
  6
CONTINUOUS
 62
    7
 10
185.9857415521449
 20
42.404292575485073
 11
185.9857415521449
 21
65.904292575485073
  0
LINE
  8
_0-2_00
  6
CONTINUOUS
 62
    7
 10
185.3857415283031
 20
44.404292575485073
 11
185.9857415521449
 21
42.404292575485073
  0
LINE
  8
_0-2_00
  6
CONTINUOUS
 62
    7
 10
185.9857415521449
 20
42.404292575485073
 11
186.58574157598679
 21
44.404292575485073
  0
LINE
  8
_0-2_00
  6
CONTINUOUS
 62
    7
 10
185.3857415283031
 20
63.904292575485073
 11
185.9857415521449
 21
65.904292575485073
  0
LINE
  8
_0-2_00
  6
CONTINUOUS
 62
    7
 10
185.9857415521449
 20
65.904292575485073
 11
186.58574157598679
 21
63.904292575485073
  0
LINE
  8
_0-2_00
  6
CONTINUOUS
 62
    7
 10
192.75991224802021
 20
65.904292575485073
 11
183.9857415521449
 21
65.904292575485073
  0
TEXT
  8
_0-2_00
 62
    7
 10
185.4857415521449
 20
49.891510070316883
 40
3.0999999046325679
 41
1
 50
90
  1
470
  0
ENDBLK
  0
BLOCK
  2
-032-_D24
 70
   64
 10
0
 20
0
 30
0
  0
LINE
  8
_0-2_00
  6
CONTINUOUS
 62
    7
 10
196.09241039549869
 20
78.404292575435065
 11
183.9857415521449
 21
78.404292575435065
  0
LINE
  8
_0-2_00
  6
CONTINUOUS
 62
    7
 10
185.9857415521449
 20
78.404292575435065
 11
185.9857415521449
 21
65.904292575485073
  0
LINE
  8
_0-2_00
  6
CONTINUOUS
 62
    7
 10
186.58574157598679
 20
76.404292575435065
 11
185.9857415521449
 21
78.404292575435065
  0
LINE
  8
_0-2_00
  6
CONTINUOUS
 62
    7
 10
185.9857415521449
 20
78.404292575435065
 11
185.3857415283031
 21
76.404292575435065
  0
LINE
  8
_0-2_00
  6
CONTINUOUS
 62
    7
 10
186.58574157598679
 20
67.904292575485073
 11
185.9857415521449
 21
65.904292575485073
  0
LINE
  8
_0-2_00
  6
CONTINUOUS
 62
    7
 10
185.9857415521449
 20
65.904292575485073
 11
185.3857415283031
 21
67.904292575485073
  0
LINE
  8
_0-2_00
  6
CONTINUOUS
 62
    7
 10
192.75991224802021
 20
65.904292575485073
 11
183.9857415521449
 21
65.904292575485073
  0
TEXT
  8
_0-2_00
 62
    7
 10
185.4857415521449
 20
68.159292451482415
 40
3.0999999046325679
 41
1
 50
90
  1
250
  0
ENDBLK
  0
BLOCK
  2
-033-M8
 70
   64
 10
0
 20
0
 30
0
  0
LINE
  8
_0-2_00
  6
CONTINUOUS
 62
    7
 10
0
 20
0
 11
5.6085032613788712
 21
3.0403613755727812
  0
LINE
  8
_0-2_00
  6
CONTINUOUS
 62
    7
 10
1.4723198246590909
 20
1.4806330951745119
 11
0
 21
0
  0
LINE
  8
_0-2_00
  6
CONTINUOUS
 62
    7
 10
0
 20
0
 11
2.0442118419204851
 21
0.4256735532803149
  0
LINE
  8
_0-2_00
  6
CONTINUOUS
 62
    7
 10
5.6085032613788712
 20
3.0403613755727812
 11
37.166503974369633
 21
3.0403613755727812
  0
TEXT
  8
_0-2_00
 62
    7
 10
7.3465032364641294
 20
3.5403613755727812
 40
2.7999999523162842
 41
1
 50
0
  1
※止水栓「注1・2」
  0
ENDBLK
  0
BLOCK
  2
-034-M9
 70
   64
 10
0
 20
0
 30
0
  0
LINE
  8
_0-a_20
  6
CONTINUOUS
 62
    7
 10
0
 20
0
 11
-4.1543898402871804
 21
6.2926737522378824
  0
LINE
  8
_0-a_20
  6
CONTINUOUS
 62
    7
 10
-1.6026316065663619
 20
1.3384961569779541
 11
0
 21
0
  0
LINE
  8
_0-a_20
  6
CONTINUOUS
 62
    7
 10
0
 20
0
 11
-0.6011899267095609
 21
1.9996426432323311
  0
LINE
  8
_0-a_20
  6
CONTINUOUS
 62
    7
 10
-4.1543898402871804
 20
6.2926737522378824
 11
-16.354389518124069
 21
6.2926737522378824
  0
TEXT
  8
_0-a_20
 62
    7
 10
-16.354389518124069
 20
6.7926737522378824
 40
2
 41
1
 50
0
  1
左給水の時
  0
ENDBLK
  0
BLOCK
  2
-035-M10
 70
   64
 10
0
 20
0
 30
0
  0
LINE
  8
_0-a_20
  6
CONTINUOUS
 62
    7
 10
0
 20
0
 11
-15.65708332712766
 21
4.9091236139282648
  0
LINE
  8
_0-a_20
  6
CONTINUOUS
 62
    7
 10
-2.087901417997756
 20
0.0258398400380549
 11
0
 21
0
  0
LINE
  8
_0-a_20
  6
CONTINUOUS
 62
    7
 10
0
 20
0
 11
-1.728886567375467
 21
1.17087628114968
  0
LINE
  8
_0-a_20
  6
CONTINUOUS
 62
    7
 10
-15.65708332712766
 20
4.9091236139282648
 11
-3.457083649290762
 21
4.9091236139282648
  0
TEXT
  8
_0-a_20
 62
    7
 10
-14.41708332980987
 20
5.4091236139282648
 40
2
 41
1
 50
0
  1
右給水の時
  0
ENDBLK
  0
BLOCK
  2
-036-M11
 70
   64
 10
0
 20
0
 30
0
  0
LINE
  8
_0-a_20
  6
CONTINUOUS
 62
    7
 10
0
 20
0
 11
6.2728467142655067
 21
3.361670937289106
  0
LINE
  8
_0-a_20
  6
CONTINUOUS
 62
    7
 10
1.4794049190154339
 20
1.4735539061069891
 11
0
 21
0
  0
LINE
  8
_0-a_20
  6
CONTINUOUS
 62
    7
 10
0
 20
0
 11
2.0462301191588939
 21
0.4158633526258461
  0
LINE
  8
_0-a_20
  6
CONTINUOUS
 62
    7
 10
6.2728467142655067
 20
3.361670937289106
 11
25.672846141762889
 21
3.361670937289106
  0
TEXT
  8
_0-a_20
 62
    7
 10
7.5128467115832978
 20
3.861670937289106
 40
2
 41
1
 50
0
  1
φ33(排水管穴)
  0
ENDBLK
  0
BLOCK
  2
-037-M12
 70
   64
 10
0
 20
0
 30
0
  0
LINE
  8
_0-a_20
  6
CONTINUOUS
 62
    7
 10
0
 20
0
 11
2.7641141573135131
 21
3.4526011639757139
  0
LINE
  8
_0-a_20
  6
CONTINUOUS
 62
    7
 10
0.7815639255456863
 20
1.9362742209965631
 11
0
 21
0
  0
LINE
  8
_0-a_20
  6
CONTINUOUS
 62
    7
 10
0
 20
0
 11
1.7183373698423849
 21
1.186303802578996
  0
LINE
  8
_0-a_20
  6
CONTINUOUS
 62
    7
 10
2.7641141573135131
 20
3.4526011639757139
 11
15.383980862536101
 21
3.4526011639757139
  0
TEXT
  8
_0-a_20
 62
    7
 10
4.0041141546313037
 20
3.9526011639757139
 40
2
 41
1
 50
0
  1
汚水口
  0
ENDBLK
  0
ENDSEC
  0
SECTION
  2
ENTITIES
  0
TEXT
  8
_0-0_WAKU0
 62
    7
 10
186.97726737511681
 20
102.51369885371491
 40
3.0999999046325679
 41
1
 50
0
  1
「注意」
  0
TEXT
  8
_0-0_WAKU0
 62
    7
 10
189.90592617285981
 20
98.301472494410888
 40
2.7999999523162842
 41
1
 50
0
  1
1.※印の部品は製品梱包に含まれておりませんので別途手配お願い
  0
TEXT
  8
_0-0_WAKU0
 62
    7
 10
189.90592617285981
 20
95.161472389506713
 40
2.7999999523162842
 41
1
 50
0
  1
  致します。
  0
TEXT
  8
_0-0_WAKU0
 62
    7
 10
189.90592617285981
 20
92.02147228460251
 40
2.7999999523162842
 41
1
 50
0
  1
2.左図寸法は、下記表の部品を使用した場合の給水位置寸法です。
  0
TEXT
  8
_0-0_WAKU0
 62
    7
 10
189.90592617285981
 20
88.881472179698306
 40
2.7999999523162842
 41
1
 50
0
  1
　施工例と異なる給水器具をご使用になる場合は、寸法が変わりま
  0
TEXT
  8
_0-0_WAKU0
 62
    7
 10
189.90592617285981
 20
85.741472074794189
 40
2.7999999523162842
 41
1
 50
0
  1
　すのでご注意ください。
  0
LINE
  8
_0-2_00
  6
CENTER
 62
    3
 10
87.305300365293249
 20
-32.161001222170484
 11
87.305300365277844
 21
-7.6129896257151302
  0
LINE
  8
_0-2_00
  6
CONTINUOUS
 62
    3
 10
96.05530036529305
 20
-31.845707424564381
 11
96.0553003652862
 21
-20.954202707577068
  0
ARC
  8
_0-2_00
  6
CONTINUOUS
 62
    3
 10
99.805300365281596
 20
-13.595707424561937
 40
0.25
 50
0
 51
90
  0
LINE
  8
_0-2_00
  6
CONTINUOUS
 62
    3
 10
96.995302485279012
 20
-19.258206099566166
 11
98.41029665529544
 21
-18.373834743304883
  0
ARC
  8
_0-2_00
  6
CONTINUOUS
 62
    3
 10
96.555300365282733
 20
-15.405840679288048
 40
3.5
 50
302.00538320811307
 51
0.0000000000000127
  0
ARC
  8
_0-2_00
  6
CONTINUOUS
 62
    3
 10
98.055300365286229
 20
-20.954202707575817
 40
2
 50
122.00538320811309
 51
180
  0
LINE
  8
_0-2_00
  6
CONTINUOUS
 62
    3
 10
74.305300365293022
 20
-31.79570742456761
 11
74.30530036528603
 21
-20.649980573044814
  0
LINE
  8
_0-2_00
  6
CONTINUOUS
 62
    3
 10
74.30530036529305
 20
-31.845707424567593
 11
96.05530036529305
 21
-31.845707424562761
  0
LINE
  8
_0-2_00
  6
CONTINUOUS
 62
    3
 10
68.04280036528101
 20
-13.220707424564978
 11
68.050797883876569
 21
-13.300682610520056
  0
LINE
  8
_0-2_00
  6
CONTINUOUS
 62
    3
 10
68.404883968470898
 20
-16.086577950855599
 11
73.305855561034633
 21
-18.918250426556597
  0
ARC
  8
_0-2_00
  6
CONTINUOUS
 62
    3
 10
69.155300365282358
 20
-14.78778034098849
 40
1.5
 50
204.9578482698692
 51
239.98163257241271
  0
ARC
  8
_0-2_00
  6
CONTINUOUS
 62
    3
 10
72.30530036528603
 20
-20.649980573046093
 40
2
 50
0
 51
59.981632572412686
  0
ARC
  8
_0-2_00
  6
CONTINUOUS
 62
    3
 10
68.100549743387049
 20
-13.295707424568974
 40
0.05
 50
185.71059313753659
 51
270
  0
LINE
  8
_0-2_00
  6
CONTINUOUS
 62
    3
 10
72.220799121492377
 20
-12.845707424568047
 11
72.981578102023065
 21
-12.845707424567877
  0
LINE
  8
_0-2_00
  6
CONTINUOUS
 62
    3
 10
72.08030036528146
 20
-13.345707424568076
 11
72.121295402471404
 21
-12.93575705266602
  0
LINE
  8
_0-2_00
  6
CONTINUOUS
 62
    3
 10
73.510775148190021
 20
-12.989505687838289
 11
73.527926450737226
 21
-13.126716108215163
  0
ARC
  8
_0-2_00
  6
CONTINUOUS
 62
    3
 10
73.461161254354352
 20
-12.995707424567783
 40
0.05
 50
7.1250163489375486
 51
90
  0
ARC
  8
_0-2_00
  6
CONTINUOUS
 62
    3
 10
73.77599591991563
 20
-13.095707424567706
 40
0.25
 50
187.12501634893749
 51
270
  0
ARC
  8
_0-2_00
  6
CONTINUOUS
 62
    3
 10
72.981578102023335
 20
-14.095707424567891
 40
1.25
 50
66.443535690911787
 51
90
  0
ARC
  8
_0-2_00
  6
CONTINUOUS
 62
    3
 10
72.220799121492405
 20
-12.94570742456807
 40
0.1
 50
90
 51
174.2894068625354
  0
LINE
  8
_0-2_00
  6
CONTINUOUS
 62
    3
 10
74.305300365292695
 20
-30.245707424567598
 11
90.864823302832377
 21
-30.245707424563932
  0
LINE
  8
_0-2_00
  6
CONTINUOUS
 62
    3
 10
91.078395350877713
 20
-29.66995072149146
 11
91.555300365285518
 21
-19.845707424563784
  0
LINE
  8
_0-2_00
  6
CONTINUOUS
 62
    3
 10
91.555300365285518
 20
-19.845707424563756
 11
91.36473087284719
 21
-29.755321031679273
  0
ARC
  8
_0-2_00
  6
CONTINUOUS
 62
    3
 10
90.578983434165593
 20
-29.64570742456398
 40
0.5
 50
270
 51
357.22083313596369
  0
ARC
  8
_0-2_00
  6
CONTINUOUS
 62
    3
 10
90.864823302832264
 20
-29.745707424563918
 40
0.5
 50
270
 51
358.89829388482963
  0
LINE
  8
_0-2_00
  6
CONTINUOUS
 62
    3
 10
68.771101808296009
 20
-14.652491213017356
 11
86.098706192833333
 21
-15.534303140979773
  0
LINE
  8
_0-2_00
  6
CONTINUOUS
 62
    3
 10
79.45530036529108
 20
-28.699924794481149
 11
79.455300365286774
 21
-21.845707424567649
  0
LINE
  8
_0-2_00
  6
CONTINUOUS
 62
    3
 10
81.455300365290952
 20
-28.48398448759707
 11
81.455300365286774
 21
-21.845707424566427
  0
ARC
  8
_0-2_00
  6
CONTINUOUS
 62
    3
 10
82.455300365286774
 20
-21.845707424565788
 40
3
 50
137.38956035995719
 51
180
  0
ARC
  8
_0-2_00
  6
CONTINUOUS
 62
    3
 10
82.876591953087285
 20
-16.845707424565688
 40
3.4170415456381118
 50
199.10343970055581
 51
270
  0
LINE
  8
_0-2_00
  6
CONTINUOUS
 62
    3
 10
82.876591953090326
 20
-20.26274897023643
 11
83.800556954531231
 21
-20.262748970235606
  0
LINE
  8
_0-2_00
  6
CONTINUOUS
 62
    3
 10
79.647729392720706
 20
-17.964018423742218
 11
79.647729392720308
 21
-17.320763428356543
  0
LINE
  8
_0-2_00
  6
CONTINUOUS
 62
    3
 10
73.262110115699954
 20
-12.845707424569611
 11
65.182522090097663
 21
-12.845707424562448
  0
LINE
  8
_0-2_00
  6
CONTINUOUS
 62
    3
 10
73.755300365283006
 20
-11.595707424570065
 11
73.755300365298311
 21
5.6542925753670801
  0
LINE
  8
_0-2_00
  6
CONTINUOUS
 62
    3
 10
63.755300365298041
 20
5.3542925753698967
 11
63.755300365298531
 21
5.9042925753698938
  0
ARC
  8
_0-2_00
  6
CONTINUOUS
 62
    3
 10
70.505300365283006
 20
-11.595707424567166
 40
3.25
 50
341.91998737552427
 51
359.99999999994918
  0
ARC
  8
_0-2_00
  6
CONTINUOUS
 62
    3
 10
73.262110115700267
 20
-12.495707424569588
 40
0.3499999999999999
 50
269.99999999994918
 51
341.91998737552433
  0
LINE
  8
_0-2_00
  6
CENTER
 62
    3
 10
67.255300365256488
 20
-41.450204674146548
 11
67.255300365282707
 21
-11.929405743250442
  0
ARC
  8
_0-2_00
  6
CONTINUOUS
 62
    3
 10
65.733810223885058
 20
-12.228803615025058
 40
0.9625
 50
183.30186567439662
 51
205.83374785650534
  0
ARC
  8
_0-2_00
  6
CONTINUOUS
 62
    3
 10
65.182522090097976
 20
-12.495707424562426
 40
0.3499999999999999
 50
205.83374785650543
 51
269.99999999994918
  0
ARC
  8
_0-2_00
  6
CONTINUOUS
 62
    3
 10
68.255300365220037
 20
-82.595707424565148
 40
90
 50
86.656040932236635
 51
92.622709298609706
  0
ARC
  8
_0-2_00
  6
CONTINUOUS
 62
    3
 10
74.080300365298285
 20
5.8292925753816149
 40
0.1750000000001819
 50
269.99999999994918
 51
3.6458087112089124
  0
LINE
  8
_0-2_00
  6
CONTINUOUS
 62
    3
 10
74.254946201633246
 20
5.8404205514289913
 11
74.209732182957026
 21
6.5500230947966003
  0
ARC
  8
_0-2_00
  6
CONTINUOUS
 62
    3
 10
73.461250027236417
 20
6.5023317688792304
 40
0.75
 50
3.645808711208633
 51
86.656040932236536
  0
ARC
  8
_0-2_00
  6
CONTINUOUS
 62
    3
 10
64.155300365299425
 20
6.9104376158769156
 40
0.4
 50
92.622709298609863
 51
179.99999999994921
  0
LINE
  8
_0-2_00
  6
CONTINUOUS
 62
    3
 10
63.755300365298531
 20
5.9042925754388449
 11
63.755300365299433
 21
6.9104376158772567
  0
LINE
  8
_0-2_00
  6
CONTINUOUS
 62
    3
 10
74.080300365298129
 20
5.6542925753667959
 11
63.755300365298311
 21
5.6542925753759476
  0
LINE
  8
_0-2_00
  6
CONTINUOUS
 62
    3
 10
63.055300365293057
 20
-31.8457074245336
 11
131.89845115525611
 21
-31.845707424501228
  0
LINE
  8
_0-2_00
  6
CONTINUOUS
 62
    3
 10
63.755300365298062
 20
5.3542925753699109
 11
64.516117672974218
 21
-7.8332074245036409
  0
LINE
  8
_0-2_00
  6
CONTINUOUS
 62
    3
 10
64.575252288358143
 20
-8.8582074245036608
 11
64.772908030022251
 21
-12.284240280054945
  0
LINE
  8
_0-2_00
  6
CONTINUOUS
 62
    3
 10
84.055300365291998
 20
-30.185707424564853
 11
85.555300365291998
 21
-30.185707424565678
  0
ARC
  8
_0-2_00
  6
CONTINUOUS
 62
    3
 10
84.805300365291572
 20
-29.585707424565257
 40
0.55
 50
30.850146304424801
 51
149.14985369562893
  0
ARC
  8
_0-2_00
  6
CONTINUOUS
 62
    3
 10
86.050141922566524
 20
-30.329259371157576
 40
2
 50
149.14985369562893
 51
175.88400035942882
  0
ARC
  8
_0-2_00
  6
CONTINUOUS
 62
    3
 10
83.560458808017614
 20
-30.329259371158543
 40
2
 50
4.115999640616133
 51
30.850146304416011
  0
LINE
  8
_0-2_00
  6
CONTINUOUS
 62
    3
 10
89.055300365291998
 20
-30.185707424563731
 11
90.555300365291998
 21
-30.185707424564555
  0
ARC
  8
_0-2_00
  6
CONTINUOUS
 62
    3
 10
89.805300365291572
 20
-29.585707424564148
 40
0.55
 50
30.850146304424801
 51
149.14985369562893
  0
ARC
  8
_0-2_00
  6
CONTINUOUS
 62
    3
 10
91.050141922566524
 20
-30.329259371156468
 40
2
 50
149.14985369562893
 51
175.88400035942882
  0
ARC
  8
_0-2_00
  6
CONTINUOUS
 62
    3
 10
88.560458808017614
 20
-30.329259371157434
 40
2
 50
4.115999640616133
 51
30.850146304416011
  0
LINE
  8
_0-2_00
  6
CONTINUOUS
 62
    3
 10
90.55201816764054
 20
-30.145707424563994
 11
90.578983434165707
 21
-30.145707424563994
  0
LINE
  8
_0-2_00
  6
CONTINUOUS
 62
    3
 10
74.30530036529268
 20
-30.14570742456759
 11
84.058582562943485
 21
-30.145707424565416
  0
LINE
  8
_0-2_00
  6
CONTINUOUS
 62
    3
 10
85.55201816764054
 20
-30.145707424565103
 11
89.058582562943457
 21
-30.145707424564307
  0
LINE
  8
_0-2_00
  6
CONTINUOUS
 62
    3
 10
84.455300365274582
 20
-31.845707424565347
 11
84.4553003652764
 21
-32.661465716808223
  0
LINE
  8
_0-2_00
  6
CONTINUOUS
 62
    3
 10
90.155300365274599
 20
-31.845707424520853
 11
90.155300365276389
 21
-32.661465716808223
  0
LINE
  8
_0-2_00
  6
CONTINUOUS
 62
    3
 10
162.2540304458453
 20
-31.845707424514927
 11
228.8099122599248
 21
-31.845707424514927
  0
LINE
  8
_0-2_00
  6
CONTINUOUS
 62
    3
 10
63.055300365261537
 20
44.964714153893198
 11
63.05530036528215
 21
91.452401083087011
  0
LINE
  8
_0-2_00
  6
CONTINUOUS
 62
    3
 10
65.955300365281829
 20
-12.920707424563133
 11
65.9553003652819
 21
-12.84570742456313
  0
LINE
  8
_0-2_00
  6
CONTINUOUS
 62
    3
 10
68.555300365281838
 20
-12.92070742456545
 11
68.555300365281909
 21
-12.845707424565433
  0
LINE
  8
_0-2_00
  6
CONTINUOUS
 62
    3
 10
68.555300365281838
 20
-12.92070742456545
 11
65.955300365281829
 21
-12.920707424563133
  0
LINE
  8
_0-2_00
  6
CONTINUOUS
 62
    3
 10
66.005300365281641
 20
-13.14570742456317
 11
66.00530036528184
 21
-12.920707424563176
  0
LINE
  8
_0-2_00
  6
CONTINUOUS
 62
    3
 10
68.505300365281641
 20
-13.145707424565387
 11
68.505300365281826
 21
-12.920707424565393
  0
LINE
  8
_0-2_00
  6
CONTINUOUS
 62
    3
 10
68.430300365281568
 20
-13.220707424565319
 11
66.080300365281573
 21
-13.220707424563244
  0
ARC
  8
_0-2_00
  6
CONTINUOUS
 62
    3
 10
66.08030036528163
 20
-13.145707424563241
 40
0.0749999999999999
 50
180
 51
270
  0
ARC
  8
_0-2_00
  6
CONTINUOUS
 62
    3
 10
68.430300365281624
 20
-13.14570742456533
 40
0.0749999999999999
 50
270
 51
0
  0
LINE
  8
_0-2_00
  6
CONTINUOUS
 62
    3
 10
66.755300365281556
 20
-13.220707424563841
 11
66.755300365281826
 21
-12.92070742456383
  0
LINE
  8
_0-2_00
  6
CONTINUOUS
 62
    3
 10
67.755300365281556
 20
-13.220707424564722
 11
67.755300365281812
 21
-12.920707424564739
  0
LINE
  8
_0-2_00
  6
CONTINUOUS
 62
    3
 10
67.005300365281556
 20
-13.220707424564068
 11
67.005300365281826
 21
-12.920707424564057
  0
LINE
  8
_0-2_00
  6
CONTINUOUS
 62
    3
 10
68.005300365281556
 20
-13.220707424564921
 11
68.005300365281812
 21
-12.920707424564938
  0
LINE
  8
_0-2_00
  6
CONTINUOUS
 62
    3
 10
66.605300365281209
 20
-13.620707424563705
 11
66.605300365281437
 21
-13.370707424563705
  0
LINE
  8
_0-2_00
  6
CONTINUOUS
 62
    3
 10
67.905300365281221
 20
-13.62070742456487
 11
67.90530036528142
 21
-13.37070742456487
  0
LINE
  8
_0-2_00
  6
CONTINUOUS
 62
    3
 10
68.03030036528142
 20
-13.370707424564969
 11
66.480300365281437
 21
-13.370707424563591
  0
LINE
  8
_0-2_00
  6
CONTINUOUS
 62
    3
 10
66.480300365280186
 20
-14.770707424563568
 11
66.480300365281209
 21
-13.620707424563591
  0
LINE
  8
_0-2_00
  6
CONTINUOUS
 62
    3
 10
66.480300365281437
 20
-13.370707424563591
 11
66.480300365281579
 21
-13.220707424563585
  0
LINE
  8
_0-2_00
  6
CONTINUOUS
 62
    3
 10
68.030300365280198
 20
-14.770707424564947
 11
68.030300365281221
 21
-13.620707424564969
  0
LINE
  8
_0-2_00
  6
CONTINUOUS
 62
    3
 10
68.03030036528142
 20
-13.370707424564969
 11
68.030300365281562
 21
-13.220707424564978
  0
LINE
  8
_0-2_00
  6
CONTINUOUS
 62
    3
 10
68.030300365281192
 20
-13.620707424564969
 11
66.480300365281209
 21
-13.620707424563591
  0
LINE
  8
_0-2_00
  6
CONTINUOUS
 62
    3
 10
68.030300365280169
 20
-14.770707424564961
 11
66.480300365280186
 21
-14.770707424563597
  0
LINE
  8
_0-2_00
  6
CONTINUOUS
 62
    3
 10
67.855300365280044
 20
-14.920707424564824
 11
66.655300365280084
 21
-14.920707424563744
  0
LINE
  8
_0-2_00
  6
CONTINUOUS
 62
    3
 10
66.655300365279615
 20
-15.420707424563744
 11
66.655300365280056
 21
-14.920707424563744
  0
LINE
  8
_0-2_00
  6
CONTINUOUS
 62
    3
 10
67.855300365279618
 20
-15.420707424564824
 11
67.855300365280073
 21
-14.920707424564824
  0
LINE
  8
_0-2_00
  6
CONTINUOUS
 62
    3
 10
66.4803003652802
 20
-14.770707424563582
 11
66.655300365280056
 21
-14.920707424563744
  0
LINE
  8
_0-2_00
  6
CONTINUOUS
 62
    3
 10
67.855300365280073
 20
-14.920707424564796
 11
68.030300365280198
 21
-14.770707424564961
  0
LINE
  8
_0-2_00
  6
CONTINUOUS
 62
    3
 10
67.855300365279618
 20
-15.420707424564824
 11
66.655300365279601
 21
-15.420707424563744
  0
LINE
  8
_0-2_00
  6
CONTINUOUS
 62
    3
 10
67.730300365279334
 20
-15.720707424564694
 11
66.780300365279345
 21
-15.720707424563869
  0
LINE
  8
_0-2_00
  6
CONTINUOUS
 62
    3
 10
67.755300365278913
 20
-16.195707424564716
 11
67.75530036527914
 21
-15.945707424564716
  0
LINE
  8
_0-2_00
  6
CONTINUOUS
 62
    3
 10
67.755300365279368
 20
-15.695707424564716
 11
67.755300365279609
 21
-15.420707424564739
  0
LINE
  8
_0-2_00
  6
CONTINUOUS
 62
    3
 10
66.755300365278927
 20
-16.195707424563835
 11
66.75530036527914
 21
-15.945707424563835
  0
LINE
  8
_0-2_00
  6
CONTINUOUS
 62
    3
 10
66.755300365279368
 20
-15.695707424563835
 11
66.755300365279624
 21
-15.42070742456383
  0
ARC
  8
_0-2_00
  6
CONTINUOUS
 62
    3
 10
67.730300365279362
 20
-15.695707424564702
 40
0.025
 50
270
 51
0
  0
ARC
  8
_0-2_00
  6
CONTINUOUS
 62
    3
 10
67.720300365279343
 20
-15.73570742456468
 40
0.0149999999999999
 50
90
 51
180
  0
ARC
  8
_0-2_00
  6
CONTINUOUS
 62
    3
 10
66.790300365279336
 20
-15.735707424563856
 40
0.0149999999999999
 50
0
 51
90
  0
ARC
  8
_0-2_00
  6
CONTINUOUS
 62
    3
 10
66.780300365279373
 20
-15.695707424563864
 40
0.025
 50
180
 51
270
  0
ARC
  8
_0-2_00
  6
CONTINUOUS
 62
    3
 10
66.780300365279146
 20
-15.945707424563864
 40
0.025
 50
90
 51
180
  0
ARC
  8
_0-2_00
  6
CONTINUOUS
 62
    3
 10
67.730300365279135
 20
-15.945707424564702
 40
0.025
 50
0
 51
90
  0
LINE
  8
_0-2_00
  6
CONTINUOUS
 62
    3
 10
67.705300365279186
 20
-15.905707424564696
 11
67.705300365279328
 21
-15.73570742456468
  0
LINE
  8
_0-2_00
  6
CONTINUOUS
 62
    3
 10
66.80530036527918
 20
-15.9057074245639
 11
66.805300365279336
 21
-15.735707424563884
  0
ARC
  8
_0-2_00
  6
CONTINUOUS
 62
    3
 10
66.790300365279194
 20
-15.905707424563872
 40
0.0149999999999999
 50
270
 51
0
  0
ARC
  8
_0-2_00
  6
CONTINUOUS
 62
    3
 10
67.720300365279186
 20
-15.905707424564696
 40
0.0149999999999999
 50
180
 51
270
  0
ARC
  8
_0-2_00
  6
CONTINUOUS
 62
    3
 10
66.780300365278919
 20
-16.195707424563864
 40
0.025
 50
180
 51
270
  0
ARC
  8
_0-2_00
  6
CONTINUOUS
 62
    3
 10
67.730300365278907
 20
-16.195707424564702
 40
0.025
 50
270
 51
0
  0
LINE
  8
_0-2_00
  6
CONTINUOUS
 62
    3
 10
67.730300365279334
 20
-16.220707424564694
 11
66.780300365279345
 21
-16.220707424563869
  0
LINE
  8
_0-2_00
  6
CONTINUOUS
 62
    3
 10
67.755300365278913
 20
-16.695707424564716
 11
67.75530036527914
 21
-16.445707424564716
  0
LINE
  8
_0-2_00
  6
CONTINUOUS
 62
    3
 10
66.755300365278927
 20
-16.695707424563835
 11
66.75530036527914
 21
-16.445707424563835
  0
ARC
  8
_0-2_00
  6
CONTINUOUS
 62
    3
 10
67.720300365279343
 20
-16.23570742456468
 40
0.0149999999999999
 50
90
 51
180
  0
ARC
  8
_0-2_00
  6
CONTINUOUS
 62
    3
 10
66.790300365279336
 20
-16.235707424563856
 40
0.0149999999999999
 50
0
 51
90
  0
ARC
  8
_0-2_00
  6
CONTINUOUS
 62
    3
 10
66.780300365279146
 20
-16.445707424563864
 40
0.025
 50
90
 51
180
  0
ARC
  8
_0-2_00
  6
CONTINUOUS
 62
    3
 10
67.730300365279135
 20
-16.445707424564702
 40
0.025
 50
0
 51
90
  0
LINE
  8
_0-2_00
  6
CONTINUOUS
 62
    3
 10
67.705300365279186
 20
-16.405707424564696
 11
67.705300365279328
 21
-16.23570742456468
  0
LINE
  8
_0-2_00
  6
CONTINUOUS
 62
    3
 10
66.80530036527918
 20
-16.4057074245639
 11
66.805300365279336
 21
-16.235707424563884
  0
ARC
  8
_0-2_00
  6
CONTINUOUS
 62
    3
 10
66.790300365279194
 20
-16.405707424563872
 40
0.0149999999999999
 50
270
 51
0
  0
ARC
  8
_0-2_00
  6
CONTINUOUS
 62
    3
 10
67.720300365279186
 20
-16.405707424564696
 40
0.0149999999999999
 50
180
 51
270
  0
ARC
  8
_0-2_00
  6
CONTINUOUS
 62
    3
 10
66.780300365278919
 20
-16.695707424563864
 40
0.025
 50
180
 51
270
  0
ARC
  8
_0-2_00
  6
CONTINUOUS
 62
    3
 10
67.730300365278907
 20
-16.695707424564702
 40
0.025
 50
270
 51
0
  0
LINE
  8
_0-2_00
  6
CONTINUOUS
 62
    3
 10
67.730300365279334
 20
-16.720707424564694
 11
66.780300365279345
 21
-16.720707424563869
  0
LINE
  8
_0-2_00
  6
CONTINUOUS
 62
    3
 10
67.755300365278913
 20
-17.195707424564716
 11
67.75530036527914
 21
-16.945707424564716
  0
LINE
  8
_0-2_00
  6
CONTINUOUS
 62
    3
 10
66.755300365278927
 20
-17.195707424563835
 11
66.75530036527914
 21
-16.945707424563835
  0
ARC
  8
_0-2_00
  6
CONTINUOUS
 62
    3
 10
67.720300365279343
 20
-16.73570742456468
 40
0.0149999999999999
 50
90
 51
180
  0
ARC
  8
_0-2_00
  6
CONTINUOUS
 62
    3
 10
66.790300365279336
 20
-16.735707424563856
 40
0.0149999999999999
 50
0
 51
90
  0
ARC
  8
_0-2_00
  6
CONTINUOUS
 62
    3
 10
66.780300365279146
 20
-16.945707424563864
 40
0.025
 50
90
 51
180
  0
ARC
  8
_0-2_00
  6
CONTINUOUS
 62
    3
 10
67.730300365279135
 20
-16.945707424564702
 40
0.025
 50
0
 51
90
  0
LINE
  8
_0-2_00
  6
CONTINUOUS
 62
    3
 10
67.705300365279186
 20
-16.905707424564696
 11
67.705300365279328
 21
-16.73570742456468
  0
LINE
  8
_0-2_00
  6
CONTINUOUS
 62
    3
 10
66.80530036527918
 20
-16.9057074245639
 11
66.805300365279336
 21
-16.735707424563884
  0
ARC
  8
_0-2_00
  6
CONTINUOUS
 62
    3
 10
66.790300365279194
 20
-16.905707424563872
 40
0.0149999999999999
 50
270
 51
0
  0
ARC
  8
_0-2_00
  6
CONTINUOUS
 62
    3
 10
67.720300365279186
 20
-16.905707424564696
 40
0.0149999999999999
 50
180
 51
270
  0
ARC
  8
_0-2_00
  6
CONTINUOUS
 62
    3
 10
66.780300365278919
 20
-17.195707424563864
 40
0.025
 50
180
 51
270
  0
ARC
  8
_0-2_00
  6
CONTINUOUS
 62
    3
 10
67.730300365278907
 20
-17.195707424564702
 40
0.025
 50
270
 51
0
  0
LINE
  8
_0-2_00
  6
CONTINUOUS
 62
    3
 10
67.730300365279334
 20
-17.220707424564694
 11
66.780300365279345
 21
-17.220707424563869
  0
LINE
  8
_0-2_00
  6
CONTINUOUS
 62
    3
 10
67.755300365278913
 20
-17.695707424564716
 11
67.75530036527914
 21
-17.445707424564716
  0
LINE
  8
_0-2_00
  6
CONTINUOUS
 62
    3
 10
66.755300365278927
 20
-17.695707424563835
 11
66.75530036527914
 21
-17.445707424563835
  0
ARC
  8
_0-2_00
  6
CONTINUOUS
 62
    3
 10
67.720300365279343
 20
-17.23570742456468
 40
0.0149999999999999
 50
90
 51
180
  0
ARC
  8
_0-2_00
  6
CONTINUOUS
 62
    3
 10
66.790300365279336
 20
-17.235707424563856
 40
0.0149999999999999
 50
0
 51
90
  0
ARC
  8
_0-2_00
  6
CONTINUOUS
 62
    3
 10
66.780300365279146
 20
-17.445707424563864
 40
0.025
 50
90
 51
180
  0
ARC
  8
_0-2_00
  6
CONTINUOUS
 62
    3
 10
67.730300365279135
 20
-17.445707424564702
 40
0.025
 50
0
 51
90
  0
LINE
  8
_0-2_00
  6
CONTINUOUS
 62
    3
 10
67.705300365279186
 20
-17.405707424564696
 11
67.705300365279328
 21
-17.23570742456468
  0
LINE
  8
_0-2_00
  6
CONTINUOUS
 62
    3
 10
66.80530036527918
 20
-17.4057074245639
 11
66.805300365279336
 21
-17.235707424563884
  0
ARC
  8
_0-2_00
  6
CONTINUOUS
 62
    3
 10
66.790300365279194
 20
-17.405707424563872
 40
0.0149999999999999
 50
270
 51
0
  0
ARC
  8
_0-2_00
  6
CONTINUOUS
 62
    3
 10
67.720300365279186
 20
-17.405707424564696
 40
0.0149999999999999
 50
180
 51
270
  0
ARC
  8
_0-2_00
  6
CONTINUOUS
 62
    3
 10
66.780300365278919
 20
-17.695707424563864
 40
0.025
 50
180
 51
270
  0
ARC
  8
_0-2_00
  6
CONTINUOUS
 62
    3
 10
67.730300365278907
 20
-17.695707424564702
 40
0.025
 50
270
 51
0
  0
LINE
  8
_0-2_00
  6
CONTINUOUS
 62
    3
 10
67.730300365279334
 20
-17.720707424564694
 11
66.780300365279345
 21
-17.720707424563869
  0
LINE
  8
_0-2_00
  6
CONTINUOUS
 62
    3
 10
67.755300365278913
 20
-18.195707424564716
 11
67.75530036527914
 21
-17.945707424564716
  0
LINE
  8
_0-2_00
  6
CONTINUOUS
 62
    3
 10
66.755300365278927
 20
-18.195707424563835
 11
66.75530036527914
 21
-17.945707424563835
  0
ARC
  8
_0-2_00
  6
CONTINUOUS
 62
    3
 10
67.720300365279343
 20
-17.73570742456468
 40
0.0149999999999999
 50
90
 51
180
  0
ARC
  8
_0-2_00
  6
CONTINUOUS
 62
    3
 10
66.790300365279336
 20
-17.735707424563856
 40
0.0149999999999999
 50
0
 51
90
  0
ARC
  8
_0-2_00
  6
CONTINUOUS
 62
    3
 10
66.780300365279146
 20
-17.945707424563864
 40
0.025
 50
90
 51
180
  0
ARC
  8
_0-2_00
  6
CONTINUOUS
 62
    3
 10
67.730300365279135
 20
-17.945707424564702
 40
0.025
 50
0
 51
90
  0
LINE
  8
_0-2_00
  6
CONTINUOUS
 62
    3
 10
67.705300365279186
 20
-17.905707424564696
 11
67.705300365279328
 21
-17.73570742456468
  0
LINE
  8
_0-2_00
  6
CONTINUOUS
 62
    3
 10
66.80530036527918
 20
-17.9057074245639
 11
66.805300365279336
 21
-17.735707424563884
  0
ARC
  8
_0-2_00
  6
CONTINUOUS
 62
    3
 10
66.790300365279194
 20
-17.905707424563872
 40
0.0149999999999999
 50
270
 51
0
  0
ARC
  8
_0-2_00
  6
CONTINUOUS
 62
    3
 10
67.720300365279186
 20
-17.905707424564696
 40
0.0149999999999999
 50
180
 51
270
  0
ARC
  8
_0-2_00
  6
CONTINUOUS
 62
    3
 10
66.780300365278919
 20
-18.195707424563864
 40
0.025
 50
180
 51
270
  0
ARC
  8
_0-2_00
  6
CONTINUOUS
 62
    3
 10
67.730300365278907
 20
-18.195707424564702
 40
0.025
 50
270
 51
0
  0
LINE
  8
_0-2_00
  6
CONTINUOUS
 62
    3
 10
67.730300365279334
 20
-18.220707424564694
 11
66.780300365279345
 21
-18.220707424563869
  0
LINE
  8
_0-2_00
  6
CONTINUOUS
 62
    3
 10
67.755300365278913
 20
-18.695707424564716
 11
67.75530036527914
 21
-18.445707424564716
  0
LINE
  8
_0-2_00
  6
CONTINUOUS
 62
    3
 10
66.755300365278927
 20
-18.695707424563835
 11
66.75530036527914
 21
-18.445707424563835
  0
ARC
  8
_0-2_00
  6
CONTINUOUS
 62
    3
 10
67.720300365279343
 20
-18.23570742456468
 40
0.0149999999999999
 50
90
 51
180
  0
ARC
  8
_0-2_00
  6
CONTINUOUS
 62
    3
 10
66.790300365279336
 20
-18.235707424563856
 40
0.0149999999999999
 50
0
 51
90
  0
ARC
  8
_0-2_00
  6
CONTINUOUS
 62
    3
 10
66.780300365279146
 20
-18.445707424563864
 40
0.025
 50
90
 51
180
  0
ARC
  8
_0-2_00
  6
CONTINUOUS
 62
    3
 10
67.730300365279135
 20
-18.445707424564702
 40
0.025
 50
0
 51
90
  0
LINE
  8
_0-2_00
  6
CONTINUOUS
 62
    3
 10
67.705300365279186
 20
-18.405707424564696
 11
67.705300365279328
 21
-18.23570742456468
  0
LINE
  8
_0-2_00
  6
CONTINUOUS
 62
    3
 10
66.80530036527918
 20
-18.4057074245639
 11
66.805300365279336
 21
-18.235707424563884
  0
ARC
  8
_0-2_00
  6
CONTINUOUS
 62
    3
 10
66.790300365279194
 20
-18.405707424563872
 40
0.0149999999999999
 50
270
 51
0
  0
ARC
  8
_0-2_00
  6
CONTINUOUS
 62
    3
 10
67.720300365279186
 20
-18.405707424564696
 40
0.0149999999999999
 50
180
 51
270
  0
ARC
  8
_0-2_00
  6
CONTINUOUS
 62
    3
 10
66.780300365278919
 20
-18.695707424563864
 40
0.025
 50
180
 51
270
  0
ARC
  8
_0-2_00
  6
CONTINUOUS
 62
    3
 10
67.730300365278907
 20
-18.695707424564702
 40
0.025
 50
270
 51
0
  0
LINE
  8
_0-2_00
  6
CONTINUOUS
 62
    3
 10
67.730300365279334
 20
-18.720707424564694
 11
66.780300365279345
 21
-18.720707424563869
  0
LINE
  8
_0-2_00
  6
CONTINUOUS
 62
    3
 10
67.755300365278913
 20
-19.195707424564716
 11
67.75530036527914
 21
-18.945707424564716
  0
LINE
  8
_0-2_00
  6
CONTINUOUS
 62
    3
 10
66.755300365278927
 20
-19.195707424563835
 11
66.75530036527914
 21
-18.945707424563835
  0
ARC
  8
_0-2_00
  6
CONTINUOUS
 62
    3
 10
67.720300365279343
 20
-18.73570742456468
 40
0.0149999999999999
 50
90
 51
180
  0
ARC
  8
_0-2_00
  6
CONTINUOUS
 62
    3
 10
66.790300365279336
 20
-18.735707424563856
 40
0.0149999999999999
 50
0
 51
90
  0
ARC
  8
_0-2_00
  6
CONTINUOUS
 62
    3
 10
66.780300365279146
 20
-18.945707424563864
 40
0.025
 50
90
 51
180
  0
ARC
  8
_0-2_00
  6
CONTINUOUS
 62
    3
 10
67.730300365279135
 20
-18.945707424564702
 40
0.025
 50
0
 51
90
  0
LINE
  8
_0-2_00
  6
CONTINUOUS
 62
    3
 10
67.705300365279186
 20
-18.905707424564696
 11
67.705300365279328
 21
-18.73570742456468
  0
LINE
  8
_0-2_00
  6
CONTINUOUS
 62
    3
 10
66.80530036527918
 20
-18.9057074245639
 11
66.805300365279322
 21
-18.735707424563884
  0
ARC
  8
_0-2_00
  6
CONTINUOUS
 62
    3
 10
66.790300365279194
 20
-18.905707424563872
 40
0.0149999999999999
 50
270
 51
0
  0
ARC
  8
_0-2_00
  6
CONTINUOUS
 62
    3
 10
67.720300365279186
 20
-18.905707424564696
 40
0.0149999999999999
 50
180
 51
270
  0
ARC
  8
_0-2_00
  6
CONTINUOUS
 62
    3
 10
66.780300365278919
 20
-19.195707424563864
 40
0.025
 50
180
 51
270
  0
ARC
  8
_0-2_00
  6
CONTINUOUS
 62
    3
 10
67.730300365278907
 20
-19.195707424564702
 40
0.025
 50
270
 51
0
  0
LINE
  8
_0-2_00
  6
CONTINUOUS
 62
    3
 10
67.730300365279334
 20
-19.220707424564694
 11
66.780300365279345
 21
-19.220707424563869
  0
LINE
  8
_0-2_00
  6
CONTINUOUS
 62
    3
 10
67.755300365278913
 20
-19.695707424564716
 11
67.75530036527914
 21
-19.445707424564716
  0
LINE
  8
_0-2_00
  6
CONTINUOUS
 62
    3
 10
66.755300365278927
 20
-19.695707424563835
 11
66.75530036527914
 21
-19.445707424563835
  0
ARC
  8
_0-2_00
  6
CONTINUOUS
 62
    3
 10
67.720300365279343
 20
-19.23570742456468
 40
0.0149999999999999
 50
90
 51
180
  0
ARC
  8
_0-2_00
  6
CONTINUOUS
 62
    3
 10
66.790300365279336
 20
-19.235707424563856
 40
0.0149999999999999
 50
0
 51
90
  0
ARC
  8
_0-2_00
  6
CONTINUOUS
 62
    3
 10
66.780300365279146
 20
-19.445707424563864
 40
0.025
 50
90
 51
180
  0
ARC
  8
_0-2_00
  6
CONTINUOUS
 62
    3
 10
67.730300365279135
 20
-19.445707424564702
 40
0.025
 50
0
 51
90
  0
LINE
  8
_0-2_00
  6
CONTINUOUS
 62
    3
 10
67.705300365279186
 20
-19.405707424564696
 11
67.705300365279328
 21
-19.23570742456468
  0
LINE
  8
_0-2_00
  6
CONTINUOUS
 62
    3
 10
66.80530036527918
 20
-19.4057074245639
 11
66.805300365279336
 21
-19.235707424563884
  0
ARC
  8
_0-2_00
  6
CONTINUOUS
 62
    3
 10
66.790300365279194
 20
-19.405707424563872
 40
0.0149999999999999
 50
270
 51
0
  0
ARC
  8
_0-2_00
  6
CONTINUOUS
 62
    3
 10
67.720300365279186
 20
-19.405707424564696
 40
0.0149999999999999
 50
180
 51
270
  0
ARC
  8
_0-2_00
  6
CONTINUOUS
 62
    3
 10
66.780300365278919
 20
-19.695707424563864
 40
0.025
 50
180
 51
270
  0
ARC
  8
_0-2_00
  6
CONTINUOUS
 62
    3
 10
67.730300365278907
 20
-19.695707424564702
 40
0.025
 50
270
 51
0
  0
LINE
  8
_0-2_00
  6
CONTINUOUS
 62
    3
 10
67.730300365279334
 20
-19.720707424564694
 11
66.780300365279345
 21
-19.720707424563869
  0
LINE
  8
_0-2_00
  6
CONTINUOUS
 62
    3
 10
67.755300365278913
 20
-20.195707424564716
 11
67.75530036527914
 21
-19.945707424564716
  0
LINE
  8
_0-2_00
  6
CONTINUOUS
 62
    3
 10
66.755300365278927
 20
-20.195707424563835
 11
66.75530036527914
 21
-19.945707424563835
  0
ARC
  8
_0-2_00
  6
CONTINUOUS
 62
    3
 10
67.720300365279343
 20
-19.73570742456468
 40
0.0149999999999999
 50
90
 51
180
  0
ARC
  8
_0-2_00
  6
CONTINUOUS
 62
    3
 10
66.790300365279336
 20
-19.735707424563856
 40
0.0149999999999999
 50
0
 51
90
  0
ARC
  8
_0-2_00
  6
CONTINUOUS
 62
    3
 10
66.780300365279146
 20
-19.945707424563864
 40
0.025
 50
90
 51
180
  0
ARC
  8
_0-2_00
  6
CONTINUOUS
 62
    3
 10
67.730300365279135
 20
-19.945707424564702
 40
0.025
 50
0
 51
90
  0
LINE
  8
_0-2_00
  6
CONTINUOUS
 62
    3
 10
67.705300365279186
 20
-19.905707424564696
 11
67.705300365279328
 21
-19.73570742456468
  0
LINE
  8
_0-2_00
  6
CONTINUOUS
 62
    3
 10
66.80530036527918
 20
-19.9057074245639
 11
66.805300365279336
 21
-19.735707424563884
  0
ARC
  8
_0-2_00
  6
CONTINUOUS
 62
    3
 10
66.790300365279194
 20
-19.905707424563872
 40
0.0149999999999999
 50
270
 51
0
  0
ARC
  8
_0-2_00
  6
CONTINUOUS
 62
    3
 10
67.720300365279186
 20
-19.905707424564696
 40
0.0149999999999999
 50
180
 51
270
  0
ARC
  8
_0-2_00
  6
CONTINUOUS
 62
    3
 10
66.780300365278919
 20
-20.195707424563864
 40
0.025
 50
180
 51
270
  0
ARC
  8
_0-2_00
  6
CONTINUOUS
 62
    3
 10
67.730300365278907
 20
-20.195707424564702
 40
0.025
 50
270
 51
0
  0
LINE
  8
_0-2_00
  6
CONTINUOUS
 62
    3
 10
67.730300365279334
 20
-20.220707424564694
 11
66.780300365279345
 21
-20.220707424563869
  0
LINE
  8
_0-2_00
  6
CONTINUOUS
 62
    3
 10
67.755300365278913
 20
-20.695707424564716
 11
67.75530036527914
 21
-20.445707424564716
  0
LINE
  8
_0-2_00
  6
CONTINUOUS
 62
    3
 10
66.755300365278927
 20
-20.695707424563835
 11
66.75530036527914
 21
-20.445707424563835
  0
ARC
  8
_0-2_00
  6
CONTINUOUS
 62
    3
 10
67.720300365279343
 20
-20.23570742456468
 40
0.0149999999999999
 50
90
 51
180
  0
ARC
  8
_0-2_00
  6
CONTINUOUS
 62
    3
 10
66.790300365279336
 20
-20.235707424563856
 40
0.0149999999999999
 50
0
 51
90
  0
ARC
  8
_0-2_00
  6
CONTINUOUS
 62
    3
 10
66.780300365279146
 20
-20.445707424563864
 40
0.025
 50
90
 51
180
  0
ARC
  8
_0-2_00
  6
CONTINUOUS
 62
    3
 10
67.730300365279135
 20
-20.445707424564702
 40
0.025
 50
0
 51
90
  0
LINE
  8
_0-2_00
  6
CONTINUOUS
 62
    3
 10
67.705300365279186
 20
-20.405707424564696
 11
67.705300365279328
 21
-20.23570742456468
  0
LINE
  8
_0-2_00
  6
CONTINUOUS
 62
    3
 10
66.80530036527918
 20
-20.4057074245639
 11
66.805300365279336
 21
-20.235707424563884
  0
ARC
  8
_0-2_00
  6
CONTINUOUS
 62
    3
 10
66.790300365279194
 20
-20.405707424563872
 40
0.0149999999999999
 50
270
 51
0
  0
ARC
  8
_0-2_00
  6
CONTINUOUS
 62
    3
 10
67.720300365279186
 20
-20.405707424564696
 40
0.0149999999999999
 50
180
 51
270
  0
ARC
  8
_0-2_00
  6
CONTINUOUS
 62
    3
 10
66.780300365278919
 20
-20.695707424563864
 40
0.025
 50
180
 51
270
  0
ARC
  8
_0-2_00
  6
CONTINUOUS
 62
    3
 10
67.730300365278907
 20
-20.695707424564702
 40
0.025
 50
270
 51
0
  0
LINE
  8
_0-2_00
  6
CONTINUOUS
 62
    3
 10
67.730300365279334
 20
-20.720707424564694
 11
66.780300365279345
 21
-20.720707424563869
  0
LINE
  8
_0-2_00
  6
CONTINUOUS
 62
    3
 10
67.755300365278913
 20
-21.195707424564716
 11
67.75530036527914
 21
-20.945707424564716
  0
LINE
  8
_0-2_00
  6
CONTINUOUS
 62
    3
 10
66.755300365278927
 20
-21.195707424563835
 11
66.75530036527914
 21
-20.945707424563835
  0
ARC
  8
_0-2_00
  6
CONTINUOUS
 62
    3
 10
67.720300365279343
 20
-20.73570742456468
 40
0.0149999999999999
 50
90
 51
180
  0
ARC
  8
_0-2_00
  6
CONTINUOUS
 62
    3
 10
66.790300365279336
 20
-20.735707424563856
 40
0.0149999999999999
 50
0
 51
90
  0
ARC
  8
_0-2_00
  6
CONTINUOUS
 62
    3
 10
66.780300365279146
 20
-20.945707424563864
 40
0.025
 50
90
 51
180
  0
ARC
  8
_0-2_00
  6
CONTINUOUS
 62
    3
 10
67.730300365279135
 20
-20.945707424564702
 40
0.025
 50
0
 51
90
  0
LINE
  8
_0-2_00
  6
CONTINUOUS
 62
    3
 10
67.705300365279186
 20
-20.905707424564696
 11
67.705300365279328
 21
-20.73570742456468
  0
LINE
  8
_0-2_00
  6
CONTINUOUS
 62
    3
 10
66.80530036527918
 20
-20.9057074245639
 11
66.805300365279336
 21
-20.735707424563884
  0
ARC
  8
_0-2_00
  6
CONTINUOUS
 62
    3
 10
66.790300365279194
 20
-20.905707424563872
 40
0.0149999999999999
 50
270
 51
0
  0
ARC
  8
_0-2_00
  6
CONTINUOUS
 62
    3
 10
67.720300365279186
 20
-20.905707424564696
 40
0.0149999999999999
 50
180
 51
270
  0
ARC
  8
_0-2_00
  6
CONTINUOUS
 62
    3
 10
66.780300365278919
 20
-21.195707424563864
 40
0.025
 50
180
 51
270
  0
ARC
  8
_0-2_00
  6
CONTINUOUS
 62
    3
 10
67.730300365278907
 20
-21.195707424564702
 40
0.025
 50
270
 51
0
  0
LINE
  8
_0-2_00
  6
CONTINUOUS
 62
    3
 10
67.730300365279334
 20
-21.220707424564694
 11
66.780300365279345
 21
-21.220707424563869
  0
LINE
  8
_0-2_00
  6
CONTINUOUS
 62
    3
 10
67.755300365278913
 20
-21.695707424564716
 11
67.75530036527914
 21
-21.445707424564716
  0
LINE
  8
_0-2_00
  6
CONTINUOUS
 62
    3
 10
66.755300365278927
 20
-21.695707424563835
 11
66.75530036527914
 21
-21.445707424563835
  0
ARC
  8
_0-2_00
  6
CONTINUOUS
 62
    3
 10
67.720300365279343
 20
-21.23570742456468
 40
0.0149999999999999
 50
90
 51
180
  0
ARC
  8
_0-2_00
  6
CONTINUOUS
 62
    3
 10
66.790300365279336
 20
-21.235707424563856
 40
0.0149999999999999
 50
0
 51
90
  0
ARC
  8
_0-2_00
  6
CONTINUOUS
 62
    3
 10
66.780300365279146
 20
-21.445707424563864
 40
0.025
 50
90
 51
180
  0
ARC
  8
_0-2_00
  6
CONTINUOUS
 62
    3
 10
67.730300365279135
 20
-21.445707424564702
 40
0.025
 50
0
 51
90
  0
LINE
  8
_0-2_00
  6
CONTINUOUS
 62
    3
 10
67.705300365279186
 20
-21.405707424564696
 11
67.705300365279328
 21
-21.23570742456468
  0
LINE
  8
_0-2_00
  6
CONTINUOUS
 62
    3
 10
66.80530036527918
 20
-21.4057074245639
 11
66.805300365279336
 21
-21.235707424563884
  0
ARC
  8
_0-2_00
  6
CONTINUOUS
 62
    3
 10
66.790300365279194
 20
-21.405707424563872
 40
0.0149999999999999
 50
270
 51
0
  0
ARC
  8
_0-2_00
  6
CONTINUOUS
 62
    3
 10
67.720300365279186
 20
-21.405707424564696
 40
0.0149999999999999
 50
180
 51
270
  0
ARC
  8
_0-2_00
  6
CONTINUOUS
 62
    3
 10
66.780300365278919
 20
-21.695707424563864
 40
0.025
 50
180
 51
270
  0
ARC
  8
_0-2_00
  6
CONTINUOUS
 62
    3
 10
67.730300365278907
 20
-21.695707424564702
 40
0.025
 50
270
 51
0
  0
LINE
  8
_0-2_00
  6
CONTINUOUS
 62
    3
 10
67.730300365279334
 20
-21.720707424564694
 11
66.780300365279345
 21
-21.720707424563869
  0
LINE
  8
_0-2_00
  6
CONTINUOUS
 62
    3
 10
67.755300365278913
 20
-22.195707424564716
 11
67.75530036527914
 21
-21.945707424564716
  0
LINE
  8
_0-2_00
  6
CONTINUOUS
 62
    3
 10
66.755300365278927
 20
-22.195707424563835
 11
66.75530036527914
 21
-21.945707424563835
  0
ARC
  8
_0-2_00
  6
CONTINUOUS
 62
    3
 10
67.720300365279343
 20
-21.73570742456468
 40
0.0149999999999999
 50
90
 51
180
  0
ARC
  8
_0-2_00
  6
CONTINUOUS
 62
    3
 10
66.790300365279336
 20
-21.735707424563856
 40
0.0149999999999999
 50
0
 51
90
  0
ARC
  8
_0-2_00
  6
CONTINUOUS
 62
    3
 10
66.780300365279146
 20
-21.945707424563864
 40
0.025
 50
90
 51
180
  0
ARC
  8
_0-2_00
  6
CONTINUOUS
 62
    3
 10
67.730300365279135
 20
-21.945707424564702
 40
0.025
 50
0
 51
90
  0
LINE
  8
_0-2_00
  6
CONTINUOUS
 62
    3
 10
67.705300365279186
 20
-21.905707424564696
 11
67.705300365279328
 21
-21.73570742456468
  0
LINE
  8
_0-2_00
  6
CONTINUOUS
 62
    3
 10
66.80530036527918
 20
-21.9057074245639
 11
66.805300365279336
 21
-21.735707424563884
  0
ARC
  8
_0-2_00
  6
CONTINUOUS
 62
    3
 10
66.790300365279194
 20
-21.905707424563872
 40
0.0149999999999999
 50
270
 51
0
  0
ARC
  8
_0-2_00
  6
CONTINUOUS
 62
    3
 10
67.720300365279186
 20
-21.905707424564696
 40
0.0149999999999999
 50
180
 51
270
  0
ARC
  8
_0-2_00
  6
CONTINUOUS
 62
    3
 10
66.780300365278919
 20
-22.195707424563864
 40
0.025
 50
180
 51
270
  0
ARC
  8
_0-2_00
  6
CONTINUOUS
 62
    3
 10
67.730300365278907
 20
-22.195707424564702
 40
0.025
 50
270
 51
0
  0
LINE
  8
_0-2_00
  6
CONTINUOUS
 62
    3
 10
67.730300365279334
 20
-22.220707424564694
 11
66.780300365279345
 21
-22.220707424563869
  0
LINE
  8
_0-2_00
  6
CONTINUOUS
 62
    3
 10
67.755300365278913
 20
-22.695707424564716
 11
67.75530036527914
 21
-22.445707424564716
  0
LINE
  8
_0-2_00
  6
CONTINUOUS
 62
    3
 10
66.755300365278927
 20
-22.695707424563835
 11
66.75530036527914
 21
-22.445707424563835
  0
ARC
  8
_0-2_00
  6
CONTINUOUS
 62
    3
 10
67.720300365279343
 20
-22.23570742456468
 40
0.0149999999999999
 50
90
 51
180
  0
ARC
  8
_0-2_00
  6
CONTINUOUS
 62
    3
 10
66.790300365279336
 20
-22.235707424563856
 40
0.0149999999999999
 50
0
 51
90
  0
ARC
  8
_0-2_00
  6
CONTINUOUS
 62
    3
 10
66.780300365279146
 20
-22.445707424563864
 40
0.025
 50
90
 51
180
  0
ARC
  8
_0-2_00
  6
CONTINUOUS
 62
    3
 10
67.730300365279135
 20
-22.445707424564702
 40
0.025
 50
0
 51
90
  0
LINE
  8
_0-2_00
  6
CONTINUOUS
 62
    3
 10
67.705300365279186
 20
-22.405707424564696
 11
67.705300365279328
 21
-22.23570742456468
  0
LINE
  8
_0-2_00
  6
CONTINUOUS
 62
    3
 10
66.80530036527918
 20
-22.4057074245639
 11
66.805300365279336
 21
-22.235707424563884
  0
ARC
  8
_0-2_00
  6
CONTINUOUS
 62
    3
 10
66.790300365279194
 20
-22.405707424563872
 40
0.0149999999999999
 50
270
 51
0
  0
ARC
  8
_0-2_00
  6
CONTINUOUS
 62
    3
 10
67.720300365279186
 20
-22.405707424564696
 40
0.0149999999999999
 50
180
 51
270
  0
ARC
  8
_0-2_00
  6
CONTINUOUS
 62
    3
 10
66.780300365278919
 20
-22.695707424563864
 40
0.025
 50
180
 51
270
  0
ARC
  8
_0-2_00
  6
CONTINUOUS
 62
    3
 10
67.730300365278907
 20
-22.695707424564702
 40
0.025
 50
270
 51
0
  0
LINE
  8
_0-2_00
  6
CONTINUOUS
 62
    3
 10
67.730300365279334
 20
-22.720707424564694
 11
66.780300365279345
 21
-22.720707424563869
  0
LINE
  8
_0-2_00
  6
CONTINUOUS
 62
    3
 10
67.755300365278913
 20
-23.195707424564716
 11
67.75530036527914
 21
-22.945707424564716
  0
LINE
  8
_0-2_00
  6
CONTINUOUS
 62
    3
 10
66.755300365278927
 20
-23.195707424563835
 11
66.75530036527914
 21
-22.945707424563835
  0
ARC
  8
_0-2_00
  6
CONTINUOUS
 62
    3
 10
67.720300365279343
 20
-22.73570742456468
 40
0.0149999999999999
 50
90
 51
180
  0
ARC
  8
_0-2_00
  6
CONTINUOUS
 62
    3
 10
66.790300365279336
 20
-22.735707424563856
 40
0.0149999999999999
 50
0
 51
90
  0
ARC
  8
_0-2_00
  6
CONTINUOUS
 62
    3
 10
66.780300365279146
 20
-22.945707424563864
 40
0.025
 50
90
 51
180
  0
ARC
  8
_0-2_00
  6
CONTINUOUS
 62
    3
 10
67.730300365279135
 20
-22.945707424564702
 40
0.025
 50
0
 51
90
  0
LINE
  8
_0-2_00
  6
CONTINUOUS
 62
    3
 10
67.705300365279186
 20
-22.905707424564696
 11
67.705300365279328
 21
-22.73570742456468
  0
LINE
  8
_0-2_00
  6
CONTINUOUS
 62
    3
 10
66.80530036527918
 20
-22.9057074245639
 11
66.805300365279336
 21
-22.735707424563884
  0
ARC
  8
_0-2_00
  6
CONTINUOUS
 62
    3
 10
66.790300365279194
 20
-22.905707424563872
 40
0.0149999999999999
 50
270
 51
0
  0
ARC
  8
_0-2_00
  6
CONTINUOUS
 62
    3
 10
67.720300365279186
 20
-22.905707424564696
 40
0.0149999999999999
 50
180
 51
270
  0
ARC
  8
_0-2_00
  6
CONTINUOUS
 62
    3
 10
66.780300365278919
 20
-23.195707424563864
 40
0.025
 50
180
 51
270
  0
ARC
  8
_0-2_00
  6
CONTINUOUS
 62
    3
 10
67.730300365278907
 20
-23.195707424564702
 40
0.025
 50
270
 51
0
  0
LINE
  8
_0-2_00
  6
CONTINUOUS
 62
    3
 10
67.730300365279334
 20
-23.220707424564694
 11
66.780300365279345
 21
-23.220707424563869
  0
LINE
  8
_0-2_00
  6
CONTINUOUS
 62
    3
 10
67.755300365278913
 20
-23.695707424564716
 11
67.75530036527914
 21
-23.445707424564716
  0
LINE
  8
_0-2_00
  6
CONTINUOUS
 62
    3
 10
66.755300365278927
 20
-23.695707424563835
 11
66.75530036527914
 21
-23.445707424563835
  0
ARC
  8
_0-2_00
  6
CONTINUOUS
 62
    3
 10
67.720300365279343
 20
-23.23570742456468
 40
0.0149999999999999
 50
90
 51
180
  0
ARC
  8
_0-2_00
  6
CONTINUOUS
 62
    3
 10
66.790300365279336
 20
-23.235707424563856
 40
0.0149999999999999
 50
0
 51
90
  0
ARC
  8
_0-2_00
  6
CONTINUOUS
 62
    3
 10
66.780300365279146
 20
-23.445707424563864
 40
0.025
 50
90
 51
180
  0
ARC
  8
_0-2_00
  6
CONTINUOUS
 62
    3
 10
67.730300365279135
 20
-23.445707424564702
 40
0.025
 50
0
 51
90
  0
LINE
  8
_0-2_00
  6
CONTINUOUS
 62
    3
 10
67.7053003652792
 20
-23.405707424564696
 11
67.705300365279356
 21
-23.23570742456468
  0
LINE
  8
_0-2_00
  6
CONTINUOUS
 62
    3
 10
66.80530036527918
 20
-23.4057074245639
 11
66.805300365279336
 21
-23.235707424563884
  0
ARC
  8
_0-2_00
  6
CONTINUOUS
 62
    3
 10
66.790300365279194
 20
-23.405707424563872
 40
0.0149999999999999
 50
270
 51
0
  0
ARC
  8
_0-2_00
  6
CONTINUOUS
 62
    3
 10
67.720300365279186
 20
-23.405707424564696
 40
0.0149999999999999
 50
180
 51
270
  0
ARC
  8
_0-2_00
  6
CONTINUOUS
 62
    3
 10
66.780300365278919
 20
-23.695707424563864
 40
0.025
 50
180
 51
270
  0
ARC
  8
_0-2_00
  6
CONTINUOUS
 62
    3
 10
67.730300365278907
 20
-23.695707424564702
 40
0.025
 50
270
 51
0
  0
LINE
  8
_0-2_00
  6
CONTINUOUS
 62
    3
 10
67.730300365279334
 20
-23.720707424564694
 11
66.780300365279345
 21
-23.720707424563869
  0
LINE
  8
_0-2_00
  6
CONTINUOUS
 62
    3
 10
67.755300365278913
 20
-24.195707424564716
 11
67.75530036527914
 21
-23.945707424564716
  0
LINE
  8
_0-2_00
  6
CONTINUOUS
 62
    3
 10
66.755300365278927
 20
-24.195707424563835
 11
66.75530036527914
 21
-23.945707424563835
  0
ARC
  8
_0-2_00
  6
CONTINUOUS
 62
    3
 10
67.720300365279343
 20
-23.73570742456468
 40
0.0149999999999999
 50
90
 51
180
  0
ARC
  8
_0-2_00
  6
CONTINUOUS
 62
    3
 10
66.790300365279336
 20
-23.735707424563856
 40
0.0149999999999999
 50
0
 51
90
  0
ARC
  8
_0-2_00
  6
CONTINUOUS
 62
    3
 10
66.780300365279146
 20
-23.945707424563864
 40
0.025
 50
90
 51
180
  0
ARC
  8
_0-2_00
  6
CONTINUOUS
 62
    3
 10
67.730300365279135
 20
-23.945707424564702
 40
0.025
 50
0
 51
90
  0
LINE
  8
_0-2_00
  6
CONTINUOUS
 62
    3
 10
67.705300365279186
 20
-23.905707424564696
 11
67.705300365279328
 21
-23.73570742456468
  0
LINE
  8
_0-2_00
  6
CONTINUOUS
 62
    3
 10
66.80530036527918
 20
-23.9057074245639
 11
66.805300365279336
 21
-23.735707424563884
  0
ARC
  8
_0-2_00
  6
CONTINUOUS
 62
    3
 10
66.790300365279194
 20
-23.905707424563872
 40
0.0149999999999999
 50
270
 51
0
  0
ARC
  8
_0-2_00
  6
CONTINUOUS
 62
    3
 10
67.720300365279186
 20
-23.905707424564696
 40
0.0149999999999999
 50
180
 51
270
  0
ARC
  8
_0-2_00
  6
CONTINUOUS
 62
    3
 10
66.780300365278919
 20
-24.195707424563864
 40
0.025
 50
180
 51
270
  0
ARC
  8
_0-2_00
  6
CONTINUOUS
 62
    3
 10
67.730300365278907
 20
-24.195707424564702
 40
0.025
 50
270
 51
0
  0
LINE
  8
_0-2_00
  6
CONTINUOUS
 62
    3
 10
67.730300365279334
 20
-24.220707424564694
 11
66.780300365279345
 21
-24.220707424563869
  0
LINE
  8
_0-2_00
  6
CONTINUOUS
 62
    3
 10
67.755300365278913
 20
-24.695707424564716
 11
67.75530036527914
 21
-24.445707424564716
  0
LINE
  8
_0-2_00
  6
CONTINUOUS
 62
    3
 10
66.755300365278927
 20
-24.695707424563835
 11
66.75530036527914
 21
-24.445707424563835
  0
ARC
  8
_0-2_00
  6
CONTINUOUS
 62
    3
 10
67.720300365279343
 20
-24.23570742456468
 40
0.0149999999999999
 50
90
 51
180
  0
ARC
  8
_0-2_00
  6
CONTINUOUS
 62
    3
 10
66.790300365279336
 20
-24.235707424563856
 40
0.0149999999999999
 50
0
 51
90
  0
ARC
  8
_0-2_00
  6
CONTINUOUS
 62
    3
 10
66.780300365279146
 20
-24.445707424563864
 40
0.025
 50
90
 51
180
  0
ARC
  8
_0-2_00
  6
CONTINUOUS
 62
    3
 10
67.730300365279135
 20
-24.445707424564702
 40
0.025
 50
0
 51
90
  0
LINE
  8
_0-2_00
  6
CONTINUOUS
 62
    3
 10
67.705300365279186
 20
-24.405707424564696
 11
67.705300365279328
 21
-24.23570742456468
  0
LINE
  8
_0-2_00
  6
CONTINUOUS
 62
    3
 10
66.80530036527918
 20
-24.4057074245639
 11
66.805300365279336
 21
-24.235707424563884
  0
ARC
  8
_0-2_00
  6
CONTINUOUS
 62
    3
 10
66.790300365279194
 20
-24.405707424563872
 40
0.0149999999999999
 50
270
 51
0
  0
ARC
  8
_0-2_00
  6
CONTINUOUS
 62
    3
 10
67.720300365279186
 20
-24.405707424564696
 40
0.0149999999999999
 50
180
 51
270
  0
ARC
  8
_0-2_00
  6
CONTINUOUS
 62
    3
 10
66.780300365278919
 20
-24.695707424563864
 40
0.025
 50
180
 51
270
  0
ARC
  8
_0-2_00
  6
CONTINUOUS
 62
    3
 10
67.730300365278907
 20
-24.695707424564702
 40
0.025
 50
270
 51
0
  0
LINE
  8
_0-2_00
  6
CONTINUOUS
 62
    3
 10
67.730300365279334
 20
-24.720707424564694
 11
66.780300365279345
 21
-24.720707424563869
  0
LINE
  8
_0-2_00
  6
CONTINUOUS
 62
    3
 10
67.755300365278913
 20
-25.195707424564716
 11
67.75530036527914
 21
-24.945707424564716
  0
LINE
  8
_0-2_00
  6
CONTINUOUS
 62
    3
 10
66.755300365278927
 20
-25.195707424563835
 11
66.75530036527914
 21
-24.945707424563835
  0
ARC
  8
_0-2_00
  6
CONTINUOUS
 62
    3
 10
67.720300365279343
 20
-24.73570742456468
 40
0.0149999999999999
 50
90
 51
180
  0
ARC
  8
_0-2_00
  6
CONTINUOUS
 62
    3
 10
66.790300365279336
 20
-24.735707424563856
 40
0.0149999999999999
 50
0
 51
90
  0
ARC
  8
_0-2_00
  6
CONTINUOUS
 62
    3
 10
66.780300365279146
 20
-24.945707424563864
 40
0.025
 50
90
 51
180
  0
ARC
  8
_0-2_00
  6
CONTINUOUS
 62
    3
 10
67.730300365279135
 20
-24.945707424564702
 40
0.025
 50
0
 51
90
  0
LINE
  8
_0-2_00
  6
CONTINUOUS
 62
    3
 10
67.705300365279186
 20
-24.905707424564696
 11
67.705300365279328
 21
-24.73570742456468
  0
LINE
  8
_0-2_00
  6
CONTINUOUS
 62
    3
 10
66.80530036527918
 20
-24.9057074245639
 11
66.805300365279336
 21
-24.735707424563884
  0
ARC
  8
_0-2_00
  6
CONTINUOUS
 62
    3
 10
66.790300365279194
 20
-24.905707424563872
 40
0.0149999999999999
 50
270
 51
0
  0
ARC
  8
_0-2_00
  6
CONTINUOUS
 62
    3
 10
67.720300365279186
 20
-24.905707424564696
 40
0.0149999999999999
 50
180
 51
270
  0
ARC
  8
_0-2_00
  6
CONTINUOUS
 62
    3
 10
66.780300365278919
 20
-25.195707424563864
 40
0.025
 50
180
 51
270
  0
ARC
  8
_0-2_00
  6
CONTINUOUS
 62
    3
 10
67.730300365278907
 20
-25.195707424564702
 40
0.025
 50
270
 51
0
  0
LINE
  8
_0-2_00
  6
CONTINUOUS
 62
    3
 10
67.730300365279334
 20
-25.220707424564694
 11
66.780300365279345
 21
-25.220707424563869
  0
LINE
  8
_0-2_00
  6
CONTINUOUS
 62
    3
 10
67.755300365278913
 20
-25.695707424564716
 11
67.75530036527914
 21
-25.445707424564716
  0
LINE
  8
_0-2_00
  6
CONTINUOUS
 62
    3
 10
66.755300365278927
 20
-25.695707424563835
 11
66.75530036527914
 21
-25.445707424563835
  0
ARC
  8
_0-2_00
  6
CONTINUOUS
 62
    3
 10
67.720300365279343
 20
-25.23570742456468
 40
0.0149999999999999
 50
90
 51
180
  0
ARC
  8
_0-2_00
  6
CONTINUOUS
 62
    3
 10
66.790300365279336
 20
-25.235707424563856
 40
0.0149999999999999
 50
0
 51
90
  0
ARC
  8
_0-2_00
  6
CONTINUOUS
 62
    3
 10
66.780300365279146
 20
-25.445707424563864
 40
0.025
 50
90
 51
180
  0
ARC
  8
_0-2_00
  6
CONTINUOUS
 62
    3
 10
67.730300365279135
 20
-25.445707424564702
 40
0.025
 50
0
 51
90
  0
LINE
  8
_0-2_00
  6
CONTINUOUS
 62
    3
 10
67.705300365279186
 20
-25.405707424564696
 11
67.705300365279328
 21
-25.23570742456468
  0
LINE
  8
_0-2_00
  6
CONTINUOUS
 62
    3
 10
66.80530036527918
 20
-25.4057074245639
 11
66.805300365279336
 21
-25.235707424563884
  0
ARC
  8
_0-2_00
  6
CONTINUOUS
 62
    3
 10
66.790300365279194
 20
-25.405707424563872
 40
0.0149999999999999
 50
270
 51
0
  0
ARC
  8
_0-2_00
  6
CONTINUOUS
 62
    3
 10
67.720300365279186
 20
-25.405707424564696
 40
0.0149999999999999
 50
180
 51
270
  0
ARC
  8
_0-2_00
  6
CONTINUOUS
 62
    3
 10
66.780300365278919
 20
-25.695707424563864
 40
0.025
 50
180
 51
270
  0
ARC
  8
_0-2_00
  6
CONTINUOUS
 62
    3
 10
67.730300365278907
 20
-25.695707424564702
 40
0.025
 50
270
 51
0
  0
LINE
  8
_0-2_00
  6
CONTINUOUS
 62
    3
 10
67.730300365279334
 20
-25.720707424564694
 11
66.780300365279345
 21
-25.720707424563869
  0
LINE
  8
_0-2_00
  6
CONTINUOUS
 62
    3
 10
67.755300365278913
 20
-26.195707424564716
 11
67.75530036527914
 21
-25.945707424564716
  0
LINE
  8
_0-2_00
  6
CONTINUOUS
 62
    3
 10
66.755300365278927
 20
-26.195707424563835
 11
66.75530036527914
 21
-25.945707424563835
  0
ARC
  8
_0-2_00
  6
CONTINUOUS
 62
    3
 10
67.720300365279343
 20
-25.73570742456468
 40
0.0149999999999999
 50
90
 51
180
  0
ARC
  8
_0-2_00
  6
CONTINUOUS
 62
    3
 10
66.790300365279336
 20
-25.735707424563856
 40
0.0149999999999999
 50
0
 51
90
  0
ARC
  8
_0-2_00
  6
CONTINUOUS
 62
    3
 10
66.780300365279146
 20
-25.945707424563864
 40
0.025
 50
90
 51
180
  0
ARC
  8
_0-2_00
  6
CONTINUOUS
 62
    3
 10
67.730300365279135
 20
-25.945707424564702
 40
0.025
 50
0
 51
90
  0
LINE
  8
_0-2_00
  6
CONTINUOUS
 62
    3
 10
67.705300365279186
 20
-25.905707424564696
 11
67.705300365279328
 21
-25.73570742456468
  0
LINE
  8
_0-2_00
  6
CONTINUOUS
 62
    3
 10
66.80530036527918
 20
-25.9057074245639
 11
66.805300365279336
 21
-25.735707424563884
  0
ARC
  8
_0-2_00
  6
CONTINUOUS
 62
    3
 10
66.790300365279194
 20
-25.905707424563872
 40
0.0149999999999999
 50
270
 51
0
  0
ARC
  8
_0-2_00
  6
CONTINUOUS
 62
    3
 10
67.720300365279186
 20
-25.905707424564696
 40
0.0149999999999999
 50
180
 51
270
  0
ARC
  8
_0-2_00
  6
CONTINUOUS
 62
    3
 10
66.780300365278919
 20
-26.195707424563864
 40
0.025
 50
180
 51
270
  0
ARC
  8
_0-2_00
  6
CONTINUOUS
 62
    3
 10
67.730300365278907
 20
-26.195707424564702
 40
0.025
 50
270
 51
0
  0
LINE
  8
_0-2_00
  6
CONTINUOUS
 62
    3
 10
67.730300365279334
 20
-26.220707424564694
 11
66.780300365279345
 21
-26.220707424563869
  0
LINE
  8
_0-2_00
  6
CONTINUOUS
 62
    3
 10
67.755300365278913
 20
-26.695707424564716
 11
67.75530036527914
 21
-26.445707424564716
  0
LINE
  8
_0-2_00
  6
CONTINUOUS
 62
    3
 10
66.755300365278927
 20
-26.695707424563835
 11
66.75530036527914
 21
-26.445707424563835
  0
ARC
  8
_0-2_00
  6
CONTINUOUS
 62
    3
 10
67.720300365279343
 20
-26.23570742456468
 40
0.0149999999999999
 50
90
 51
180
  0
ARC
  8
_0-2_00
  6
CONTINUOUS
 62
    3
 10
66.790300365279336
 20
-26.235707424563856
 40
0.0149999999999999
 50
0
 51
90
  0
ARC
  8
_0-2_00
  6
CONTINUOUS
 62
    3
 10
66.780300365279146
 20
-26.445707424563864
 40
0.025
 50
90
 51
180
  0
ARC
  8
_0-2_00
  6
CONTINUOUS
 62
    3
 10
67.730300365279135
 20
-26.445707424564702
 40
0.025
 50
0
 51
90
  0
LINE
  8
_0-2_00
  6
CONTINUOUS
 62
    3
 10
67.705300365279186
 20
-26.405707424564696
 11
67.705300365279328
 21
-26.23570742456468
  0
LINE
  8
_0-2_00
  6
CONTINUOUS
 62
    3
 10
66.80530036527918
 20
-26.4057074245639
 11
66.805300365279336
 21
-26.235707424563884
  0
ARC
  8
_0-2_00
  6
CONTINUOUS
 62
    3
 10
66.790300365279194
 20
-26.405707424563872
 40
0.0149999999999999
 50
270
 51
0
  0
ARC
  8
_0-2_00
  6
CONTINUOUS
 62
    3
 10
67.720300365279186
 20
-26.405707424564696
 40
0.0149999999999999
 50
180
 51
270
  0
ARC
  8
_0-2_00
  6
CONTINUOUS
 62
    3
 10
66.780300365278919
 20
-26.695707424563864
 40
0.025
 50
180
 51
270
  0
ARC
  8
_0-2_00
  6
CONTINUOUS
 62
    3
 10
67.730300365278907
 20
-26.695707424564702
 40
0.025
 50
270
 51
0
  0
LINE
  8
_0-2_00
  6
CONTINUOUS
 62
    3
 10
67.730300365279334
 20
-26.720707424564694
 11
66.780300365279345
 21
-26.720707424563869
  0
LINE
  8
_0-2_00
  6
CONTINUOUS
 62
    3
 10
67.755300365278913
 20
-27.195707424564716
 11
67.75530036527914
 21
-26.945707424564716
  0
LINE
  8
_0-2_00
  6
CONTINUOUS
 62
    3
 10
66.755300365278927
 20
-27.195707424563835
 11
66.75530036527914
 21
-26.945707424563835
  0
ARC
  8
_0-2_00
  6
CONTINUOUS
 62
    3
 10
67.720300365279343
 20
-26.73570742456468
 40
0.0149999999999999
 50
90
 51
180
  0
ARC
  8
_0-2_00
  6
CONTINUOUS
 62
    3
 10
66.790300365279336
 20
-26.735707424563856
 40
0.0149999999999999
 50
0
 51
90
  0
ARC
  8
_0-2_00
  6
CONTINUOUS
 62
    3
 10
66.780300365279146
 20
-26.945707424563864
 40
0.025
 50
90
 51
180
  0
ARC
  8
_0-2_00
  6
CONTINUOUS
 62
    3
 10
67.730300365279135
 20
-26.945707424564702
 40
0.025
 50
0
 51
90
  0
LINE
  8
_0-2_00
  6
CONTINUOUS
 62
    3
 10
67.705300365279186
 20
-26.905707424564696
 11
67.705300365279328
 21
-26.73570742456468
  0
LINE
  8
_0-2_00
  6
CONTINUOUS
 62
    3
 10
66.80530036527918
 20
-26.9057074245639
 11
66.805300365279336
 21
-26.735707424563884
  0
ARC
  8
_0-2_00
  6
CONTINUOUS
 62
    3
 10
66.790300365279194
 20
-26.905707424563872
 40
0.0149999999999999
 50
270
 51
0
  0
ARC
  8
_0-2_00
  6
CONTINUOUS
 62
    3
 10
67.720300365279186
 20
-26.905707424564696
 40
0.0149999999999999
 50
180
 51
270
  0
ARC
  8
_0-2_00
  6
CONTINUOUS
 62
    3
 10
66.780300365278919
 20
-27.195707424563864
 40
0.025
 50
180
 51
270
  0
ARC
  8
_0-2_00
  6
CONTINUOUS
 62
    3
 10
67.730300365278907
 20
-27.195707424564702
 40
0.025
 50
270
 51
0
  0
LINE
  8
_0-2_00
  6
CONTINUOUS
 62
    3
 10
67.730300365279334
 20
-27.220707424564694
 11
66.780300365279345
 21
-27.220707424563869
  0
LINE
  8
_0-2_00
  6
CONTINUOUS
 62
    3
 10
67.755300365278913
 20
-27.695707424564716
 11
67.75530036527914
 21
-27.445707424564716
  0
LINE
  8
_0-2_00
  6
CONTINUOUS
 62
    3
 10
66.755300365278927
 20
-27.695707424563835
 11
66.75530036527914
 21
-27.445707424563835
  0
ARC
  8
_0-2_00
  6
CONTINUOUS
 62
    3
 10
67.720300365279343
 20
-27.23570742456468
 40
0.0149999999999999
 50
90
 51
180
  0
ARC
  8
_0-2_00
  6
CONTINUOUS
 62
    3
 10
66.790300365279336
 20
-27.235707424563856
 40
0.0149999999999999
 50
0
 51
90
  0
ARC
  8
_0-2_00
  6
CONTINUOUS
 62
    3
 10
66.780300365279146
 20
-27.445707424563864
 40
0.025
 50
90
 51
180
  0
ARC
  8
_0-2_00
  6
CONTINUOUS
 62
    3
 10
67.730300365279135
 20
-27.445707424564702
 40
0.025
 50
0
 51
90
  0
LINE
  8
_0-2_00
  6
CONTINUOUS
 62
    3
 10
67.705300365279186
 20
-27.405707424564696
 11
67.705300365279328
 21
-27.23570742456468
  0
LINE
  8
_0-2_00
  6
CONTINUOUS
 62
    3
 10
66.80530036527918
 20
-27.4057074245639
 11
66.805300365279322
 21
-27.235707424563884
  0
ARC
  8
_0-2_00
  6
CONTINUOUS
 62
    3
 10
66.790300365279194
 20
-27.405707424563872
 40
0.0149999999999999
 50
270
 51
0
  0
ARC
  8
_0-2_00
  6
CONTINUOUS
 62
    3
 10
67.720300365279186
 20
-27.405707424564696
 40
0.0149999999999999
 50
180
 51
270
  0
ARC
  8
_0-2_00
  6
CONTINUOUS
 62
    3
 10
66.780300365278919
 20
-27.695707424563864
 40
0.025
 50
180
 51
270
  0
ARC
  8
_0-2_00
  6
CONTINUOUS
 62
    3
 10
67.730300365278907
 20
-27.695707424564702
 40
0.025
 50
270
 51
0
  0
LINE
  8
_0-2_00
  6
CONTINUOUS
 62
    3
 10
67.730300365279334
 20
-27.720707424564694
 11
66.780300365279345
 21
-27.720707424563869
  0
LINE
  8
_0-2_00
  6
CONTINUOUS
 62
    3
 10
67.755300365278913
 20
-28.195707424564716
 11
67.75530036527914
 21
-27.945707424564716
  0
LINE
  8
_0-2_00
  6
CONTINUOUS
 62
    3
 10
66.755300365278927
 20
-28.195707424563835
 11
66.75530036527914
 21
-27.945707424563835
  0
ARC
  8
_0-2_00
  6
CONTINUOUS
 62
    3
 10
67.720300365279343
 20
-27.73570742456468
 40
0.0149999999999999
 50
90
 51
180
  0
ARC
  8
_0-2_00
  6
CONTINUOUS
 62
    3
 10
66.790300365279336
 20
-27.735707424563856
 40
0.0149999999999999
 50
0
 51
90
  0
ARC
  8
_0-2_00
  6
CONTINUOUS
 62
    3
 10
66.780300365279146
 20
-27.945707424563864
 40
0.025
 50
90
 51
180
  0
ARC
  8
_0-2_00
  6
CONTINUOUS
 62
    3
 10
67.730300365279135
 20
-27.945707424564702
 40
0.025
 50
0
 51
90
  0
LINE
  8
_0-2_00
  6
CONTINUOUS
 62
    3
 10
67.705300365279186
 20
-27.905707424564696
 11
67.705300365279328
 21
-27.73570742456468
  0
LINE
  8
_0-2_00
  6
CONTINUOUS
 62
    3
 10
66.80530036527918
 20
-27.9057074245639
 11
66.805300365279336
 21
-27.735707424563884
  0
ARC
  8
_0-2_00
  6
CONTINUOUS
 62
    3
 10
66.790300365279194
 20
-27.905707424563872
 40
0.0149999999999999
 50
270
 51
0
  0
ARC
  8
_0-2_00
  6
CONTINUOUS
 62
    3
 10
67.720300365279186
 20
-27.905707424564696
 40
0.0149999999999999
 50
180
 51
270
  0
ARC
  8
_0-2_00
  6
CONTINUOUS
 62
    3
 10
66.780300365278919
 20
-28.195707424563864
 40
0.025
 50
180
 51
270
  0
ARC
  8
_0-2_00
  6
CONTINUOUS
 62
    3
 10
67.730300365278907
 20
-28.195707424564702
 40
0.025
 50
270
 51
0
  0
LINE
  8
_0-2_00
  6
CONTINUOUS
 62
    3
 10
67.730300365279334
 20
-28.220707424564694
 11
66.780300365279345
 21
-28.220707424563869
  0
LINE
  8
_0-2_00
  6
CONTINUOUS
 62
    3
 10
67.755300365278913
 20
-28.695707424564716
 11
67.75530036527914
 21
-28.445707424564716
  0
LINE
  8
_0-2_00
  6
CONTINUOUS
 62
    3
 10
66.755300365278927
 20
-28.695707424563835
 11
66.75530036527914
 21
-28.445707424563835
  0
ARC
  8
_0-2_00
  6
CONTINUOUS
 62
    3
 10
67.720300365279343
 20
-28.23570742456468
 40
0.0149999999999999
 50
90
 51
180
  0
ARC
  8
_0-2_00
  6
CONTINUOUS
 62
    3
 10
66.790300365279336
 20
-28.235707424563856
 40
0.0149999999999999
 50
0
 51
90
  0
ARC
  8
_0-2_00
  6
CONTINUOUS
 62
    3
 10
66.780300365279146
 20
-28.445707424563864
 40
0.025
 50
90
 51
180
  0
ARC
  8
_0-2_00
  6
CONTINUOUS
 62
    3
 10
67.730300365279135
 20
-28.445707424564702
 40
0.025
 50
0
 51
90
  0
LINE
  8
_0-2_00
  6
CONTINUOUS
 62
    3
 10
67.705300365279186
 20
-28.405707424564696
 11
67.705300365279328
 21
-28.23570742456468
  0
LINE
  8
_0-2_00
  6
CONTINUOUS
 62
    3
 10
66.80530036527918
 20
-28.4057074245639
 11
66.805300365279336
 21
-28.235707424563884
  0
ARC
  8
_0-2_00
  6
CONTINUOUS
 62
    3
 10
66.790300365279194
 20
-28.405707424563872
 40
0.0149999999999999
 50
270
 51
0
  0
ARC
  8
_0-2_00
  6
CONTINUOUS
 62
    3
 10
67.720300365279186
 20
-28.405707424564696
 40
0.0149999999999999
 50
180
 51
270
  0
ARC
  8
_0-2_00
  6
CONTINUOUS
 62
    3
 10
66.780300365278919
 20
-28.695707424563864
 40
0.025
 50
180
 51
270
  0
ARC
  8
_0-2_00
  6
CONTINUOUS
 62
    3
 10
67.730300365278907
 20
-28.695707424564702
 40
0.025
 50
270
 51
0
  0
LINE
  8
_0-2_00
  6
CONTINUOUS
 62
    3
 10
67.730300365279334
 20
-28.720707424564694
 11
66.780300365279345
 21
-28.720707424563869
  0
LINE
  8
_0-2_00
  6
CONTINUOUS
 62
    3
 10
67.755300365278913
 20
-29.195707424564716
 11
67.75530036527914
 21
-28.945707424564716
  0
LINE
  8
_0-2_00
  6
CONTINUOUS
 62
    3
 10
66.755300365278927
 20
-29.195707424563835
 11
66.75530036527914
 21
-28.945707424563835
  0
ARC
  8
_0-2_00
  6
CONTINUOUS
 62
    3
 10
67.720300365279343
 20
-28.73570742456468
 40
0.0149999999999999
 50
90
 51
180
  0
ARC
  8
_0-2_00
  6
CONTINUOUS
 62
    3
 10
66.790300365279336
 20
-28.735707424563856
 40
0.0149999999999999
 50
0
 51
90
  0
ARC
  8
_0-2_00
  6
CONTINUOUS
 62
    3
 10
66.780300365279146
 20
-28.945707424563864
 40
0.025
 50
90
 51
180
  0
ARC
  8
_0-2_00
  6
CONTINUOUS
 62
    3
 10
67.730300365279135
 20
-28.945707424564702
 40
0.025
 50
0
 51
90
  0
LINE
  8
_0-2_00
  6
CONTINUOUS
 62
    3
 10
67.705300365279186
 20
-28.905707424564696
 11
67.705300365279328
 21
-28.73570742456468
  0
LINE
  8
_0-2_00
  6
CONTINUOUS
 62
    3
 10
66.80530036527918
 20
-28.9057074245639
 11
66.805300365279336
 21
-28.735707424563884
  0
ARC
  8
_0-2_00
  6
CONTINUOUS
 62
    3
 10
66.790300365279194
 20
-28.905707424563872
 40
0.0149999999999999
 50
270
 51
0
  0
ARC
  8
_0-2_00
  6
CONTINUOUS
 62
    3
 10
67.720300365279186
 20
-28.905707424564696
 40
0.0149999999999999
 50
180
 51
270
  0
ARC
  8
_0-2_00
  6
CONTINUOUS
 62
    3
 10
66.780300365278919
 20
-29.195707424563864
 40
0.025
 50
180
 51
270
  0
ARC
  8
_0-2_00
  6
CONTINUOUS
 62
    3
 10
67.730300365278907
 20
-29.195707424564702
 40
0.025
 50
270
 51
0
  0
LINE
  8
_0-2_00
  6
CONTINUOUS
 62
    3
 10
67.730300365279334
 20
-29.220707424564694
 11
66.780300365279345
 21
-29.220707424563869
  0
LINE
  8
_0-2_00
  6
CONTINUOUS
 62
    3
 10
67.755300365278913
 20
-29.695707424564716
 11
67.75530036527914
 21
-29.445707424564716
  0
LINE
  8
_0-2_00
  6
CONTINUOUS
 62
    3
 10
66.755300365278927
 20
-29.695707424563835
 11
66.75530036527914
 21
-29.445707424563835
  0
ARC
  8
_0-2_00
  6
CONTINUOUS
 62
    3
 10
67.720300365279343
 20
-29.23570742456468
 40
0.0149999999999999
 50
90
 51
180
  0
ARC
  8
_0-2_00
  6
CONTINUOUS
 62
    3
 10
66.790300365279336
 20
-29.235707424563856
 40
0.0149999999999999
 50
0
 51
90
  0
ARC
  8
_0-2_00
  6
CONTINUOUS
 62
    3
 10
66.780300365279146
 20
-29.445707424563864
 40
0.025
 50
90
 51
180
  0
ARC
  8
_0-2_00
  6
CONTINUOUS
 62
    3
 10
67.730300365279135
 20
-29.445707424564702
 40
0.025
 50
0
 51
90
  0
LINE
  8
_0-2_00
  6
CONTINUOUS
 62
    3
 10
67.705300365279186
 20
-29.405707424564696
 11
67.705300365279328
 21
-29.23570742456468
  0
LINE
  8
_0-2_00
  6
CONTINUOUS
 62
    3
 10
66.80530036527918
 20
-29.4057074245639
 11
66.805300365279336
 21
-29.235707424563884
  0
ARC
  8
_0-2_00
  6
CONTINUOUS
 62
    3
 10
66.790300365279194
 20
-29.405707424563872
 40
0.0149999999999999
 50
270
 51
0
  0
ARC
  8
_0-2_00
  6
CONTINUOUS
 62
    3
 10
67.720300365279186
 20
-29.405707424564696
 40
0.0149999999999999
 50
180
 51
270
  0
ARC
  8
_0-2_00
  6
CONTINUOUS
 62
    3
 10
66.780300365278919
 20
-29.695707424563864
 40
0.025
 50
180
 51
270
  0
ARC
  8
_0-2_00
  6
CONTINUOUS
 62
    3
 10
67.730300365278907
 20
-29.695707424564702
 40
0.025
 50
270
 51
0
  0
LINE
  8
_0-2_00
  6
CONTINUOUS
 62
    3
 10
67.730300365279334
 20
-29.720707424564694
 11
66.780300365279345
 21
-29.720707424563869
  0
LINE
  8
_0-2_00
  6
CONTINUOUS
 62
    3
 10
67.755300365278913
 20
-30.195707424564716
 11
67.75530036527914
 21
-29.945707424564716
  0
LINE
  8
_0-2_00
  6
CONTINUOUS
 62
    3
 10
66.755300365278927
 20
-30.195707424563835
 11
66.75530036527914
 21
-29.945707424563835
  0
ARC
  8
_0-2_00
  6
CONTINUOUS
 62
    3
 10
67.720300365279343
 20
-29.73570742456468
 40
0.0149999999999999
 50
90
 51
180
  0
ARC
  8
_0-2_00
  6
CONTINUOUS
 62
    3
 10
66.790300365279336
 20
-29.735707424563856
 40
0.0149999999999999
 50
0
 51
90
  0
ARC
  8
_0-2_00
  6
CONTINUOUS
 62
    3
 10
66.780300365279146
 20
-29.945707424563864
 40
0.025
 50
90
 51
180
  0
ARC
  8
_0-2_00
  6
CONTINUOUS
 62
    3
 10
67.730300365279135
 20
-29.945707424564702
 40
0.025
 50
0
 51
90
  0
LINE
  8
_0-2_00
  6
CONTINUOUS
 62
    3
 10
67.705300365279186
 20
-29.905707424564696
 11
67.705300365279328
 21
-29.73570742456468
  0
LINE
  8
_0-2_00
  6
CONTINUOUS
 62
    3
 10
66.80530036527918
 20
-29.9057074245639
 11
66.805300365279336
 21
-29.735707424563884
  0
ARC
  8
_0-2_00
  6
CONTINUOUS
 62
    3
 10
66.790300365279194
 20
-29.905707424563872
 40
0.0149999999999999
 50
270
 51
0
  0
ARC
  8
_0-2_00
  6
CONTINUOUS
 62
    3
 10
67.720300365279186
 20
-29.905707424564696
 40
0.0149999999999999
 50
180
 51
270
  0
ARC
  8
_0-2_00
  6
CONTINUOUS
 62
    3
 10
66.780300365278919
 20
-30.195707424563864
 40
0.025
 50
180
 51
270
  0
ARC
  8
_0-2_00
  6
CONTINUOUS
 62
    3
 10
67.730300365278907
 20
-30.195707424564702
 40
0.025
 50
270
 51
0
  0
LINE
  8
_0-2_00
  6
CONTINUOUS
 62
    3
 10
67.730300365279334
 20
-30.220707424564694
 11
66.780300365279345
 21
-30.220707424563869
  0
LINE
  8
_0-2_00
  6
CONTINUOUS
 62
    3
 10
67.755300365278913
 20
-30.695707424564716
 11
67.75530036527914
 21
-30.445707424564716
  0
LINE
  8
_0-2_00
  6
CONTINUOUS
 62
    3
 10
66.755300365278927
 20
-30.695707424563835
 11
66.75530036527914
 21
-30.445707424563835
  0
ARC
  8
_0-2_00
  6
CONTINUOUS
 62
    3
 10
67.720300365279343
 20
-30.23570742456468
 40
0.0149999999999999
 50
90
 51
180
  0
ARC
  8
_0-2_00
  6
CONTINUOUS
 62
    3
 10
66.790300365279336
 20
-30.235707424563856
 40
0.0149999999999999
 50
0
 51
90
  0
ARC
  8
_0-2_00
  6
CONTINUOUS
 62
    3
 10
66.780300365279146
 20
-30.445707424563864
 40
0.025
 50
90
 51
180
  0
ARC
  8
_0-2_00
  6
CONTINUOUS
 62
    3
 10
67.730300365279135
 20
-30.445707424564702
 40
0.025
 50
0
 51
90
  0
LINE
  8
_0-2_00
  6
CONTINUOUS
 62
    3
 10
67.705300365279186
 20
-30.405707424564696
 11
67.705300365279328
 21
-30.23570742456468
  0
LINE
  8
_0-2_00
  6
CONTINUOUS
 62
    3
 10
66.80530036527918
 20
-30.4057074245639
 11
66.805300365279336
 21
-30.235707424563884
  0
ARC
  8
_0-2_00
  6
CONTINUOUS
 62
    3
 10
66.790300365279194
 20
-30.405707424563872
 40
0.0149999999999999
 50
270
 51
0
  0
ARC
  8
_0-2_00
  6
CONTINUOUS
 62
    3
 10
67.720300365279186
 20
-30.405707424564696
 40
0.0149999999999999
 50
180
 51
270
  0
ARC
  8
_0-2_00
  6
CONTINUOUS
 62
    3
 10
66.780300365278919
 20
-30.695707424563864
 40
0.025
 50
180
 51
270
  0
ARC
  8
_0-2_00
  6
CONTINUOUS
 62
    3
 10
67.730300365278907
 20
-30.695707424564702
 40
0.025
 50
270
 51
0
  0
LINE
  8
_0-2_00
  6
CONTINUOUS
 62
    3
 10
67.730300365279334
 20
-30.720707424564694
 11
66.780300365279345
 21
-30.720707424563869
  0
LINE
  8
_0-2_00
  6
CONTINUOUS
 62
    3
 10
67.755300365279055
 20
-31.020707424531395
 11
67.75530036527914
 21
-30.945707424564716
  0
LINE
  8
_0-2_00
  6
CONTINUOUS
 62
    3
 10
66.755300365279084
 20
-31.020707424531849
 11
66.75530036527914
 21
-30.945707424563835
  0
ARC
  8
_0-2_00
  6
CONTINUOUS
 62
    3
 10
67.720300365279343
 20
-30.73570742456468
 40
0.0149999999999999
 50
90
 51
180
  0
ARC
  8
_0-2_00
  6
CONTINUOUS
 62
    3
 10
66.790300365279336
 20
-30.735707424563856
 40
0.0149999999999999
 50
0
 51
90
  0
ARC
  8
_0-2_00
  6
CONTINUOUS
 62
    3
 10
66.780300365279146
 20
-30.945707424563864
 40
0.025
 50
90
 51
180
  0
ARC
  8
_0-2_00
  6
CONTINUOUS
 62
    3
 10
67.730300365279135
 20
-30.945707424564702
 40
0.025
 50
0
 51
90
  0
LINE
  8
_0-2_00
  6
CONTINUOUS
 62
    3
 10
67.705300365279186
 20
-30.905707424564696
 11
67.705300365279328
 21
-30.73570742456468
  0
LINE
  8
_0-2_00
  6
CONTINUOUS
 62
    3
 10
66.80530036527918
 20
-30.9057074245639
 11
66.805300365279336
 21
-30.735707424563884
  0
ARC
  8
_0-2_00
  6
CONTINUOUS
 62
    3
 10
66.790300365279194
 20
-30.905707424563872
 40
0.0149999999999999
 50
270
 51
0
  0
ARC
  8
_0-2_00
  6
CONTINUOUS
 62
    3
 10
67.720300365279186
 20
-30.905707424564696
 40
0.0149999999999999
 50
180
 51
270
  0
LINE
  8
_0-2_00
  6
CONTINUOUS
 62
    3
 10
66.80530036527918
 20
-15.920707424563886
 11
66.780300365279174
 21
-15.920707424563858
  0
LINE
  8
_0-2_00
  6
CONTINUOUS
 62
    3
 10
67.730300365279163
 20
-15.920707424564696
 11
67.705300365279186
 21
-15.920707424564682
  0
LINE
  8
_0-2_00
  6
CONTINUOUS
 62
    3
 10
66.805300365278725
 20
-16.420707424563886
 11
66.780300365279174
 21
-16.420707424563858
  0
LINE
  8
_0-2_00
  6
CONTINUOUS
 62
    3
 10
67.730300365279163
 20
-16.420707424564696
 11
67.705300365278745
 21
-16.420707424564682
  0
LINE
  8
_0-2_00
  6
CONTINUOUS
 62
    3
 10
66.805300365278271
 20
-16.920707424563886
 11
66.780300365279174
 21
-16.920707424563858
  0
LINE
  8
_0-2_00
  6
CONTINUOUS
 62
    3
 10
67.730300365279163
 20
-16.920707424564696
 11
67.705300365278305
 21
-16.920707424564682
  0
LINE
  8
_0-2_00
  6
CONTINUOUS
 62
    3
 10
66.805300365277816
 20
-17.420707424563886
 11
66.780300365279174
 21
-17.420707424563858
  0
LINE
  8
_0-2_00
  6
CONTINUOUS
 62
    3
 10
67.730300365279163
 20
-17.420707424564696
 11
67.705300365277878
 21
-17.420707424564682
  0
LINE
  8
_0-2_00
  6
CONTINUOUS
 62
    3
 10
66.805300365277361
 20
-17.920707424563886
 11
66.780300365279174
 21
-17.920707424563858
  0
LINE
  8
_0-2_00
  6
CONTINUOUS
 62
    3
 10
67.730300365279163
 20
-17.920707424564696
 11
67.705300365277438
 21
-17.920707424564682
  0
LINE
  8
_0-2_00
  6
CONTINUOUS
 62
    3
 10
66.805300365276906
 20
-18.420707424563886
 11
66.780300365279174
 21
-18.420707424563858
  0
LINE
  8
_0-2_00
  6
CONTINUOUS
 62
    3
 10
67.730300365279163
 20
-18.420707424564696
 11
67.705300365276997
 21
-18.420707424564682
  0
LINE
  8
_0-2_00
  6
CONTINUOUS
 62
    3
 10
66.805300365276452
 20
-18.920707424563886
 11
66.780300365279174
 21
-18.920707424563858
  0
LINE
  8
_0-2_00
  6
CONTINUOUS
 62
    3
 10
67.730300365279163
 20
-18.920707424564696
 11
67.705300365276571
 21
-18.920707424564682
  0
LINE
  8
_0-2_00
  6
CONTINUOUS
 62
    3
 10
66.805300365275997
 20
-19.420707424563886
 11
66.780300365279174
 21
-19.420707424563858
  0
LINE
  8
_0-2_00
  6
CONTINUOUS
 62
    3
 10
67.730300365279163
 20
-19.420707424564696
 11
67.70530036527613
 21
-19.420707424564682
  0
LINE
  8
_0-2_00
  6
CONTINUOUS
 62
    3
 10
66.805300365275571
 20
-19.920707424563886
 11
66.780300365279174
 21
-19.920707424563858
  0
LINE
  8
_0-2_00
  6
CONTINUOUS
 62
    3
 10
67.730300365279163
 20
-19.920707424564696
 11
67.70530036527569
 21
-19.920707424564682
  0
LINE
  8
_0-2_00
  6
CONTINUOUS
 62
    3
 10
66.805300365275116
 20
-20.420707424563886
 11
66.780300365279174
 21
-20.420707424563858
  0
LINE
  8
_0-2_00
  6
CONTINUOUS
 62
    3
 10
67.730300365279163
 20
-20.420707424564696
 11
67.705300365275264
 21
-20.420707424564682
  0
LINE
  8
_0-2_00
  6
CONTINUOUS
 62
    3
 10
66.805300365274661
 20
-20.920707424563886
 11
66.780300365279174
 21
-20.920707424563858
  0
LINE
  8
_0-2_00
  6
CONTINUOUS
 62
    3
 10
67.730300365279135
 20
-20.920707424564696
 11
67.705300365274837
 21
-20.920707424564682
  0
LINE
  8
_0-2_00
  6
CONTINUOUS
 62
    3
 10
66.805300365274206
 20
-21.420707424563886
 11
66.780300365279174
 21
-21.420707424563858
  0
LINE
  8
_0-2_00
  6
CONTINUOUS
 62
    3
 10
67.730300365279135
 20
-21.420707424564696
 11
67.705300365274383
 21
-21.420707424564682
  0
LINE
  8
_0-2_00
  6
CONTINUOUS
 62
    3
 10
66.805300365273752
 20
-21.920707424563886
 11
66.780300365279174
 21
-21.920707424563858
  0
LINE
  8
_0-2_00
  6
CONTINUOUS
 62
    3
 10
67.730300365279135
 20
-21.920707424564696
 11
67.705300365273956
 21
-21.920707424564682
  0
LINE
  8
_0-2_00
  6
CONTINUOUS
 62
    3
 10
66.805300365273297
 20
-22.420707424563886
 11
66.780300365279174
 21
-22.420707424563858
  0
LINE
  8
_0-2_00
  6
CONTINUOUS
 62
    3
 10
67.730300365279135
 20
-22.420707424564696
 11
67.70530036527353
 21
-22.420707424564682
  0
LINE
  8
_0-2_00
  6
CONTINUOUS
 62
    3
 10
66.805300365272842
 20
-22.920707424563886
 11
66.780300365279174
 21
-22.920707424563858
  0
LINE
  8
_0-2_00
  6
CONTINUOUS
 62
    3
 10
67.730300365279135
 20
-22.920707424564696
 11
67.705300365273075
 21
-22.920707424564682
  0
LINE
  8
_0-2_00
  6
CONTINUOUS
 62
    3
 10
66.805300365272387
 20
-23.420707424563886
 11
66.780300365279174
 21
-23.420707424563858
  0
LINE
  8
_0-2_00
  6
CONTINUOUS
 62
    3
 10
67.730300365279135
 20
-23.420707424564696
 11
67.705300365272663
 21
-23.420707424564682
  0
LINE
  8
_0-2_00
  6
CONTINUOUS
 62
    3
 10
66.805300365271947
 20
-23.920707424563886
 11
66.780300365279174
 21
-23.920707424563858
  0
LINE
  8
_0-2_00
  6
CONTINUOUS
 62
    3
 10
67.730300365279135
 20
-23.920707424564696
 11
67.705300365272223
 21
-23.920707424564682
  0
LINE
  8
_0-2_00
  6
CONTINUOUS
 62
    3
 10
66.805300365271506
 20
-24.420707424563886
 11
66.780300365279174
 21
-24.420707424563858
  0
LINE
  8
_0-2_00
  6
CONTINUOUS
 62
    3
 10
67.730300365279135
 20
-24.420707424564696
 11
67.705300365271796
 21
-24.420707424564682
  0
LINE
  8
_0-2_00
  6
CONTINUOUS
 62
    3
 10
66.805300365271052
 20
-24.920707424563886
 11
66.780300365279174
 21
-24.920707424563858
  0
LINE
  8
_0-2_00
  6
CONTINUOUS
 62
    3
 10
67.730300365279163
 20
-24.920707424564696
 11
67.705300365271341
 21
-24.920707424564682
  0
LINE
  8
_0-2_00
  6
CONTINUOUS
 62
    3
 10
66.805300365270597
 20
-25.420707424563886
 11
66.780300365279174
 21
-25.420707424563858
  0
LINE
  8
_0-2_00
  6
CONTINUOUS
 62
    3
 10
67.730300365279163
 20
-25.420707424564696
 11
67.705300365270915
 21
-25.420707424564682
  0
LINE
  8
_0-2_00
  6
CONTINUOUS
 62
    3
 10
66.805300365270142
 20
-25.920707424563886
 11
66.780300365279174
 21
-25.920707424563858
  0
LINE
  8
_0-2_00
  6
CONTINUOUS
 62
    3
 10
67.730300365279163
 20
-25.920707424564696
 11
67.705300365270489
 21
-25.920707424564682
  0
LINE
  8
_0-2_00
  6
CONTINUOUS
 62
    3
 10
66.805300365269687
 20
-26.420707424563886
 11
66.780300365279174
 21
-26.420707424563858
  0
LINE
  8
_0-2_00
  6
CONTINUOUS
 62
    3
 10
67.730300365279163
 20
-26.420707424564696
 11
67.705300365270048
 21
-26.420707424564682
  0
LINE
  8
_0-2_00
  6
CONTINUOUS
 62
    3
 10
66.805300365269233
 20
-26.920707424563886
 11
66.780300365279174
 21
-26.920707424563858
  0
LINE
  8
_0-2_00
  6
CONTINUOUS
 62
    3
 10
67.730300365279163
 20
-26.920707424564696
 11
67.705300365269608
 21
-26.920707424564682
  0
LINE
  8
_0-2_00
  6
CONTINUOUS
 62
    3
 10
66.805300365268778
 20
-27.420707424563886
 11
66.780300365279174
 21
-27.420707424563858
  0
LINE
  8
_0-2_00
  6
CONTINUOUS
 62
    3
 10
67.730300365279163
 20
-27.420707424564696
 11
67.705300365269181
 21
-27.420707424564682
  0
LINE
  8
_0-2_00
  6
CONTINUOUS
 62
    3
 10
66.805300365268337
 20
-27.920707424563886
 11
66.780300365279174
 21
-27.920707424563858
  0
LINE
  8
_0-2_00
  6
CONTINUOUS
 62
    3
 10
67.730300365279163
 20
-27.920707424564696
 11
67.705300365268741
 21
-27.920707424564682
  0
LINE
  8
_0-2_00
  6
CONTINUOUS
 62
    3
 10
66.805300365278725
 20
-28.420707424563886
 11
66.780300365279174
 21
-28.420707424563858
  0
LINE
  8
_0-2_00
  6
CONTINUOUS
 62
    3
 10
67.730300365279163
 20
-28.420707424564696
 11
67.705300365278745
 21
-28.420707424564682
  0
LINE
  8
_0-2_00
  6
CONTINUOUS
 62
    3
 10
66.805300365278271
 20
-28.920707424563886
 11
66.780300365279174
 21
-28.920707424563858
  0
LINE
  8
_0-2_00
  6
CONTINUOUS
 62
    3
 10
67.730300365279163
 20
-28.920707424564696
 11
67.705300365278305
 21
-28.920707424564682
  0
LINE
  8
_0-2_00
  6
CONTINUOUS
 62
    3
 10
66.805300365277816
 20
-29.420707424563886
 11
66.780300365279174
 21
-29.420707424563858
  0
LINE
  8
_0-2_00
  6
CONTINUOUS
 62
    3
 10
67.730300365279163
 20
-29.420707424564696
 11
67.705300365277878
 21
-29.420707424564682
  0
LINE
  8
_0-2_00
  6
CONTINUOUS
 62
    3
 10
66.805300365277361
 20
-29.920707424563886
 11
66.780300365279174
 21
-29.920707424563858
  0
LINE
  8
_0-2_00
  6
CONTINUOUS
 62
    3
 10
67.730300365279163
 20
-29.920707424564696
 11
67.705300365277438
 21
-29.920707424564682
  0
LINE
  8
_0-2_00
  6
CONTINUOUS
 62
    3
 10
66.805300365276906
 20
-30.420707424563886
 11
66.780300365279174
 21
-30.420707424563858
  0
LINE
  8
_0-2_00
  6
CONTINUOUS
 62
    3
 10
67.730300365279135
 20
-30.420707424564696
 11
67.705300365276997
 21
-30.420707424564682
  0
LINE
  8
_0-2_00
  6
CONTINUOUS
 62
    3
 10
66.805300365276452
 20
-30.920707424563886
 11
66.780300365279174
 21
-30.920707424563858
  0
LINE
  8
_0-2_00
  6
CONTINUOUS
 62
    3
 10
67.730300365279135
 20
-30.920707424564696
 11
67.705300365276571
 21
-30.920707424564682
  0
LINE
  8
_0-2_00
  6
CONTINUOUS
 62
    3
 10
63.755300365272127
 20
68.952401083079906
 11
63.755300365306617
 21
77.202401083053104
  0
LINE
  8
_0-2_00
  6
CONTINUOUS
 62
    3
 10
71.646448413962389
 20
78.202401083046396
 11
64.755300365307022
 21
78.202401083048898
  0
ARC
  8
_0-2_00
  6
CONTINUOUS
 62
    3
 10
64.755300365306709
 20
77.202401083048898
 40
1
 50
90
 51
180
  0
ARC
  8
_0-2_00
  6
CONTINUOUS
 62
    3
 10
-2426.244699634728
 20
68.952401083127114
 40
2500.5
 50
0
 51
0.1525350830037896
  0
ARC
  8
_0-2_00
  6
CONTINUOUS
 62
    3
 10
71.64644841396148
 20
75.602401083046402
 40
2.6000000000000001
 50
0.1525350830037896
 51
90.000000000000014
  0
LINE
  8
_0-2_00
  6
CONTINUOUS
 62
    3
 10
63.755300365272163
 20
68.952401083079906
 11
63.755300365379817
 21
60.702401083106707
  0
LINE
  8
_0-2_00
  6
CONTINUOUS
 62
    3
 10
71.646448414044414
 20
59.702401083183503
 11
64.755300365389047
 21
59.70240108311981
  0
ARC
  8
_0-2_00
  6
CONTINUOUS
 62
    3
 10
64.755300365379867
 20
60.70240108311981
 40
1
 50
180.00000000050821
 51
270.00000000050818
  0
ARC
  8
_0-2_00
  6
CONTINUOUS
 62
    3
 10
-2426.244699634728
 20
68.952401060947608
 40
2500.5
 50
359.84746491750451
 51
0.0000000005081585
  0
ARC
  8
_0-2_00
  6
CONTINUOUS
 62
    3
 10
71.646448414020455
 20
62.302401083183412
 40
2.6000000000000001
 50
270.00000000050818
 51
359.84746491750451
  0
LINE
  8
_0-2_00
  6
CONTINUOUS
 62
    3
 10
63.755300365272163
 20
68.952401083079906
 11
63.755300365265207
 21
75.602401083073687
  0
LINE
  8
_0-2_00
  6
CONTINUOUS
 62
    3
 10
63.755300365272163
 20
68.952401083079906
 11
63.755300365225892
 21
62.30240108308621
  0
LINE
  8
_0-2_00
  6
CONTINUOUS
 62
    3
 10
68.322800365968703
 20
58.752401083092394
 11
68.322800365970124
 21
56.202401083092411
  0
LINE
  8
_0-2_00
  6
CONTINUOUS
 62
    3
 10
67.687800365968684
 20
58.75240108309211
 11
67.687800365970105
 21
56.202401083092099
  0
LINE
  8
_0-2_00
  6
CONTINUOUS
 62
    3
 10
68.555300365968691
 20
58.752401083092508
 11
67.455300365968696
 21
58.75240108309211
  0
LINE
  8
_0-2_00
  6
CONTINUOUS
 62
    3
 10
68.55530036596835
 20
59.352401083092502
 11
67.455300365968355
 21
59.352401083092104
  0
ARC
  8
_0-2_00
  6
CONTINUOUS
 62
    3
 10
68.017800365968526
 20
59.052401083092406
 40
0.6374999999999878
 50
151.92751306417969
 51
208.0724869358838
  0
ARC
  8
_0-2_00
  6
CONTINUOUS
 62
    3
 10
67.992800365968549
 20
59.052401083092207
 40
0.6375
 50
331.92751306417858
 51
28.072486935884626
  0
ARC
  8
_0-2_00
  6
CONTINUOUS
 62
    3
 10
68.005201577203138
 20
59.006941816674853
 40
0.229540754833603
 50
270.02465871256743
 51
294.65937784870107
  0
ARC
  8
_0-2_00
  6
CONTINUOUS
 62
    3
 10
67.997894037383617
 20
59.023556504286589
 40
0.2476892963161528
 50
294.59208551597317
 51
318.0394270614604
  0
ARC
  8
_0-2_00
  6
CONTINUOUS
 62
    3
 10
67.977509500254271
 20
59.043275873730153
 40
0.276034024859935
 50
317.82481524166388
 51
339.62325360578791
  0
ARC
  8
_0-2_00
  6
CONTINUOUS
 62
    3
 10
67.957229326646797
 20
59.051961523221486
 40
0.298071363426999
 50
339.41551064329883
 51
0.0844929706973049
  0
ARC
  8
_0-2_00
  6
CONTINUOUS
 62
    3
 10
67.955291599570174
 20
59.052490244904448
 40
0.300008779647686
 50
359.98297184767608
 51
20.517024538327828
  0
ARC
  8
_0-2_00
  6
CONTINUOUS
 62
    3
 10
67.973540357091309
 20
59.05911529549379
 40
0.2805956553884216
 50
20.556049426597131
 51
41.995881725951094
  0
ARC
  8
_0-2_00
  6
CONTINUOUS
 62
    3
 10
67.995238255028127
 20
59.077632335387221
 40
0.2520817354218559
 50
42.167676230504235
 51
65.200811192036156
  0
ARC
  8
_0-2_00
  6
CONTINUOUS
 62
    3
 10
68.004814828537093
 20
59.096092788757929
 40
0.2313088039348272
 50
65.436232384752088
 51
89.879731054011913
  0
ARC
  8
_0-2_00
  6
CONTINUOUS
 62
    3
 10
68.00539915473388
 20
59.097860349523955
 40
0.2295407548335889
 50
90.024658712551158
 51
114.65937784868478
  0
ARC
  8
_0-2_00
  6
CONTINUOUS
 62
    3
 10
68.012706694553529
 20
59.08124566191222
 40
0.2476892963161933
 50
114.59208551598608
 51
138.03942706147348
  0
ARC
  8
_0-2_00
  6
CONTINUOUS
 62
    3
 10
68.033091231682803
 20
59.061526292468642
 40
0.2760340248599357
 50
137.82481524166388
 51
159.62325360578788
  0
ARC
  8
_0-2_00
  6
CONTINUOUS
 62
    3
 10
68.053371405290278
 20
59.052840642977309
 40
0.2980713634269985
 50
159.41551064329883
 51
180.08449297069728
  0
ARC
  8
_0-2_00
  6
CONTINUOUS
 62
    3
 10
68.055309132366901
 20
59.052311921294347
 40
0.3000087796476855
 50
179.98297184767605
 51
200.51702453832783
  0
ARC
  8
_0-2_00
  6
CONTINUOUS
 62
    3
 10
68.037060374845765
 20
59.045686870705012
 40
0.2805956553884222
 50
200.55604942659716
 51
221.99588172595108
  0
ARC
  8
_0-2_00
  6
CONTINUOUS
 62
    3
 10
68.015362476908876
 20
59.027169830811587
 40
0.2520817354218132
 50
222.16767623051726
 51
245.20081119204926
  0
ARC
  8
_0-2_00
  6
CONTINUOUS
 62
    3
 10
68.005785903400053
 20
59.00870937744088
 40
0.2313088039348412
 50
245.43623238473583
 51
269.87973105399567
  0
ARC
  8
_0-2_00
  6
CONTINUOUS
 62
    3
 10
67.504340068401035
 20
58.844717744045958
 40
0.0673235101016946
 50
270.81729047609622
 51
316.4517760568761
  0
ARC
  8
_0-2_00
  6
CONTINUOUS
 62
    3
 10
67.436735375975445
 20
58.921118375760017
 40
0.169189268295661
 50
313.47116050077693
 51
338.07586222821936
  0
ARC
  8
_0-2_00
  6
CONTINUOUS
 62
    3
 10
67.250406887543008
 20
59.010930503997777
 40
0.3758276876538652
 50
335.97982370925803
 51
350.23126192710123
  0
ARC
  8
_0-2_00
  6
CONTINUOUS
 62
    3
 10
67.065634580151254
 20
59.050406055165396
 40
0.5646693101356915
 50
349.46490031468824
 51
0.2024316115437125
  0
ARC
  8
_0-2_00
  6
CONTINUOUS
 62
    3
 10
67.04802352875825
 20
59.052803812885841
 40
0.5822769764836033
 50
359.96037157603871
 51
10.372296497729408
  0
ARC
  8
_0-2_00
  6
CONTINUOUS
 62
    3
 10
67.2143128014132
 20
59.082909254334133
 40
0.4132849345832971
 50
10.41746843886467
 51
23.371445924776015
  0
ARC
  8
_0-2_00
  6
CONTINUOUS
 62
    3
 10
67.41246493882511
 20
59.167173210392654
 40
0.1979679659137804
 50
23.734600359923753
 51
44.718376911054527
  0
ARC
  8
_0-2_00
  6
CONTINUOUS
 62
    3
 10
67.500719029394332
 20
59.251809789243239
 40
0.0757299963796068
 50
46.199197493229228
 51
86.531735973855589
  0
ARC
  8
_0-2_00
  6
CONTINUOUS
 62
    3
 10
67.506260663536011
 20
59.26008442215285
 40
0.06732351010168
 50
90.817290476067669
 51
136.45177605684751
  0
ARC
  8
_0-2_00
  6
CONTINUOUS
 62
    3
 10
67.573865355961686
 20
59.183683790438792
 40
0.1691892682957152
 50
133.47116050078958
 51
158.07586222823213
  0
ARC
  8
_0-2_00
  6
CONTINUOUS
 62
    3
 10
67.760193844394067
 20
59.093871662201018
 40
0.3758276876538674
 50
155.97982370925811
 51
170.23126192710117
  0
ARC
  8
_0-2_00
  6
CONTINUOUS
 62
    3
 10
67.94496615178582
 20
59.054396111033398
 40
0.564669310135689
 50
169.46490031468818
 51
180.20243161154372
  0
ARC
  8
_0-2_00
  6
CONTINUOUS
 62
    3
 10
67.962577203178824
 20
59.051998353312953
 40
0.5822769764836035
 50
179.96037157603868
 51
190.37229649772937
  0
ARC
  8
_0-2_00
  6
CONTINUOUS
 62
    3
 10
67.796287930523874
 20
59.021892911864661
 40
0.4132849345832955
 50
190.4174684388646
 51
203.371445924776
  0
ARC
  8
_0-2_00
  6
CONTINUOUS
 62
    3
 10
67.598135793111879
 20
58.937628955806154
 40
0.1979679659137142
 50
203.73460035993637
 51
224.71837691106737
  0
ARC
  8
_0-2_00
  6
CONTINUOUS
 62
    3
 10
67.509881702542799
 20
58.852992376955569
 40
0.0757299963796232
 50
226.19919749320059
 51
266.53173597382715
  0
ARC
  8
_0-2_00
  6
CONTINUOUS
 62
    3
 10
68.504340068401035
 20
58.844717744045958
 40
0.0673235101016946
 50
270.81729047609622
 51
316.4517760568761
  0
ARC
  8
_0-2_00
  6
CONTINUOUS
 62
    3
 10
68.436735375975445
 20
58.921118375760017
 40
0.169189268295661
 50
313.47116050077693
 51
338.07586222821936
  0
ARC
  8
_0-2_00
  6
CONTINUOUS
 62
    3
 10
68.250406887543008
 20
59.010930503997777
 40
0.3758276876538652
 50
335.97982370925803
 51
350.23126192710123
  0
ARC
  8
_0-2_00
  6
CONTINUOUS
 62
    3
 10
68.065634580151254
 20
59.050406055165396
 40
0.5646693101356915
 50
349.46490031468824
 51
0.2024316115437125
  0
ARC
  8
_0-2_00
  6
CONTINUOUS
 62
    3
 10
68.04802352875825
 20
59.052803812885841
 40
0.5822769764836033
 50
359.96037157603871
 51
10.372296497729408
  0
ARC
  8
_0-2_00
  6
CONTINUOUS
 62
    3
 10
68.2143128014132
 20
59.082909254334133
 40
0.4132849345832971
 50
10.41746843886467
 51
23.371445924776015
  0
ARC
  8
_0-2_00
  6
CONTINUOUS
 62
    3
 10
68.41246493882511
 20
59.167173210392654
 40
0.1979679659137804
 50
23.734600359923753
 51
44.718376911054527
  0
ARC
  8
_0-2_00
  6
CONTINUOUS
 62
    3
 10
68.500719029394332
 20
59.251809789243239
 40
0.0757299963796068
 50
46.199197493229228
 51
86.531735973855589
  0
ARC
  8
_0-2_00
  6
CONTINUOUS
 62
    3
 10
68.506260663536011
 20
59.26008442215285
 40
0.06732351010168
 50
90.817290476067669
 51
136.45177605684751
  0
ARC
  8
_0-2_00
  6
CONTINUOUS
 62
    3
 10
68.573865355961686
 20
59.183683790438792
 40
0.1691892682957152
 50
133.47116050078958
 51
158.07586222823213
  0
ARC
  8
_0-2_00
  6
CONTINUOUS
 62
    3
 10
68.760193844394067
 20
59.093871662201018
 40
0.3758276876538674
 50
155.97982370925811
 51
170.23126192710117
  0
ARC
  8
_0-2_00
  6
CONTINUOUS
 62
    3
 10
68.94496615178582
 20
59.054396111033398
 40
0.564669310135689
 50
169.46490031468818
 51
180.20243161154372
  0
ARC
  8
_0-2_00
  6
CONTINUOUS
 62
    3
 10
68.962577203178824
 20
59.051998353312953
 40
0.5822769764836035
 50
179.96037157603868
 51
190.37229649772937
  0
ARC
  8
_0-2_00
  6
CONTINUOUS
 62
    3
 10
68.796287930523874
 20
59.021892911864661
 40
0.4132849345832955
 50
190.4174684388646
 51
203.371445924776
  0
ARC
  8
_0-2_00
  6
CONTINUOUS
 62
    3
 10
68.598135793111879
 20
58.937628955806154
 40
0.1979679659137142
 50
203.73460035993637
 51
224.71837691106737
  0
ARC
  8
_0-2_00
  6
CONTINUOUS
 62
    3
 10
68.509881702542799
 20
58.852992376955569
 40
0.0757299963796232
 50
226.19919749320059
 51
266.53173597382715
  0
ARC
  8
_0-2_00
  6
CONTINUOUS
 62
    3
 10
68.005300365971863
 20
56.202401083092212
 40
0.3175
 50
180
 51
0
  0
LINE
  8
_0-2_00
  6
CONTINUOUS
 62
    3
 10
66.555300365972087
 20
55.602401083090911
 11
66.555300365971618
 21
56.802401083090899
  0
ARC
  8
_0-2_00
  6
CONTINUOUS
 62
    3
 10
67.006328322502981
 20
56.202123570083863
 40
0.4135280496487449
 50
179.96154958464868
 51
196.07838834076475
  0
ARC
  8
_0-2_00
  6
CONTINUOUS
 62
    3
 10
66.933091152159406
 20
56.181433126972337
 40
0.3374256225073153
 50
196.14666408152593
 51
214.50908708215513
  0
ARC
  8
_0-2_00
  6
CONTINUOUS
 62
    3
 10
66.845885029973871
 20
56.12352547534806
 40
0.2327639016583567
 50
214.92447066817962
 51
238.41737066834241
  0
ARC
  8
_0-2_00
  6
CONTINUOUS
 62
    3
 10
66.807267583746778
 20
56.065616454170595
 40
0.1632272259839648
 50
239.31920825827885
 51
269.3094534076132
  0
ARC
  8
_0-2_00
  6
CONTINUOUS
 62
    3
 10
66.804897569097719
 20
56.06004550106195
 40
0.1576449325627614
 50
270.14639599018335
 51
301.22494234392462
  0
ARC
  8
_0-2_00
  6
CONTINUOUS
 62
    3
 10
66.775401332494752
 20
56.11219768385795
 40
0.2175406587925214
 50
300.74761819104799
 51
325.91054047242994
  0
ARC
  8
_0-2_00
  6
CONTINUOUS
 62
    3
 10
66.693429998163737
 20
56.173898101182573
 40
0.3200500879002161
 50
324.98779040384807
 51
344.3564584324709
  0
ARC
  8
_0-2_00
  6
CONTINUOUS
 62
    3
 10
66.612037620375105
 20
56.20102948090333
 40
0.4057650638075864
 50
343.76638555287235
 51
0.1936765217141488
  0
ARC
  8
_0-2_00
  6
CONTINUOUS
 62
    3
 10
66.604272409441108
 20
56.202678596098288
 40
0.4135280496483457
 50
359.96154958465661
 51
16.07838834077258
  0
ARC
  8
_0-2_00
  6
CONTINUOUS
 62
    3
 10
66.677509579784285
 20
56.223369039209757
 40
0.3374256225073142
 50
16.146664081525905
 51
34.509087082155148
  0
ARC
  8
_0-2_00
  6
CONTINUOUS
 62
    3
 10
66.764715701969834
 20
56.281276690834034
 40
0.232763901658356
 50
34.924470668179623
 51
58.41737066834245
  0
ARC
  8
_0-2_00
  6
CONTINUOUS
 62
    3
 10
66.803333148196913
 20
56.339185712011499
 40
0.1632272259839651
 50
59.319208258278849
 51
89.309453407613191
  0
ARC
  8
_0-2_00
  6
CONTINUOUS
 62
    3
 10
66.805703162845973
 20
56.344756665120144
 40
0.1576449325627617
 50
90.146395990183379
 51
121.22494234392461
  0
ARC
  8
_0-2_00
  6
CONTINUOUS
 62
    3
 10
66.835199399448939
 20
56.292604482324144
 40
0.2175406587925214
 50
120.74761819104798
 51
145.91054047242994
  0
ARC
  8
_0-2_00
  6
CONTINUOUS
 62
    3
 10
66.917170733779955
 20
56.230904064999521
 40
0.3200500879002155
 50
144.98779040384804
 51
164.3564584324709
  0
ARC
  8
_0-2_00
  6
CONTINUOUS
 62
    3
 10
66.998563111568188
 20
56.203772685278821
 40
0.4057650638071927
 50
163.76638555286451
 51
180.19367652170629
  0
ARC
  8
_0-2_00
  6
CONTINUOUS
 62
    3
 10
66.703763946099656
 20
56.752689451132468
 40
0.1109639548274834
 50
180.14889781407626
 51
211.32598082805245
  0
ARC
  8
_0-2_00
  6
CONTINUOUS
 62
    3
 10
66.740963242039214
 20
56.773802301408232
 40
0.1537227035263223
 50
210.83954697089627
 51
236.0168927010069
  0
ARC
  8
_0-2_00
  6
CONTINUOUS
 62
    3
 10
66.784970969280749
 20
56.832472314651483
 40
0.2270001909211721
 50
235.08351146753833
 51
254.4141553242564
  0
ARC
  8
_0-2_00
  6
CONTINUOUS
 62
    3
 10
66.804322095124235
 20
56.890726760760813
 40
0.288327337270583
 50
253.8204449299156
 51
270.19440022181232
  0
ARC
  8
_0-2_00
  6
CONTINUOUS
 62
    3
 10
66.805498291844785
 20
56.896284427828604
 40
0.2938834113874915
 50
269.9614121872649
 51
286.02374266100719
  0
ARC
  8
_0-2_00
  6
CONTINUOUS
 62
    3
 10
66.820255482340059
 20
56.843866818094327
 40
0.2394290215104036
 50
286.09201419327803
 51
304.41031901492732
  0
ARC
  8
_0-2_00
  6
CONTINUOUS
 62
    3
 10
66.861557781134309
 20
56.781450443875706
 40
0.164598563868306
 50
304.82719506771497
 51
328.31636526038193
  0
ARC
  8
_0-2_00
  6
CONTINUOUS
 62
    3
 10
66.902862826225714
 20
56.753809283229387
 40
0.1149461659668453
 50
329.22706684987287
 51
359.29805450799842
  0
ARC
  8
_0-2_00
  6
CONTINUOUS
 62
    3
 10
66.90683678584378
 20
56.752112715049662
 40
0.1109639548273311
 50
0.1488978140985129
 51
31.325980828074567
  0
ARC
  8
_0-2_00
  6
CONTINUOUS
 62
    3
 10
66.869637489903823
 20
56.730999864773914
 40
0.1537227035265114
 50
30.839546970829382
 51
56.016892700940097
  0
ARC
  8
_0-2_00
  6
CONTINUOUS
 62
    3
 10
66.825629762662544
 20
56.672329851530719
 40
0.2270001909211714
 50
55.083511467538294
 51
74.414155324256427
  0
ARC
  8
_0-2_00
  6
CONTINUOUS
 62
    3
 10
66.806278636819059
 20
56.614075405421389
 40
0.2883273372705828
 50
73.82044492991561
 51
90.194400221812316
  0
ARC
  8
_0-2_00
  6
CONTINUOUS
 62
    3
 10
66.805102440098509
 20
56.608517738353598
 40
0.2938834113874914
 50
89.961412187264884
 51
106.02374266100716
  0
ARC
  8
_0-2_00
  6
CONTINUOUS
 62
    3
 10
66.790345249603234
 20
56.660935348087875
 40
0.2394290215104026
 50
106.09201419327798
 51
124.41031901492735
  0
ARC
  8
_0-2_00
  6
CONTINUOUS
 62
    3
 10
66.749042950809269
 20
56.72335172230644
 40
0.1645985638685079
 50
124.82719506778169
 51
148.3163652604488
  0
ARC
  8
_0-2_00
  6
CONTINUOUS
 62
    3
 10
66.707737905717408
 20
56.750992882952744
 40
0.1149461659666869
 50
149.22706684985064
 51
179.29805450797625
  0
ARC
  8
_0-2_00
  6
CONTINUOUS
 62
    3
 10
66.703763946100082
 20
55.652689451132474
 40
0.1109639548274834
 50
180.14889781407626
 51
211.32598082805245
  0
ARC
  8
_0-2_00
  6
CONTINUOUS
 62
    3
 10
66.740963242039641
 20
55.673802301408237
 40
0.1537227035263223
 50
210.83954697089627
 51
236.0168927010069
  0
ARC
  8
_0-2_00
  6
CONTINUOUS
 62
    3
 10
66.784970969281176
 20
55.732472314651488
 40
0.2270001909211721
 50
235.08351146753833
 51
254.4141553242564
  0
ARC
  8
_0-2_00
  6
CONTINUOUS
 62
    3
 10
66.804322095124746
 20
55.790726760760805
 40
0.288327337270597
 50
253.82044492989598
 51
270.19440022179265
  0
ARC
  8
_0-2_00
  6
CONTINUOUS
 62
    3
 10
66.805498291845112
 20
55.796284427828596
 40
0.2938834113875057
 50
269.96141218728457
 51
286.02374266102686
  0
ARC
  8
_0-2_00
  6
CONTINUOUS
 62
    3
 10
66.820255482340485
 20
55.743866818094332
 40
0.2394290215104036
 50
286.09201419327803
 51
304.41031901492732
  0
ARC
  8
_0-2_00
  6
CONTINUOUS
 62
    3
 10
66.861557781134735
 20
55.681450443875711
 40
0.164598563868306
 50
304.82719506771497
 51
328.31636526038193
  0
ARC
  8
_0-2_00
  6
CONTINUOUS
 62
    3
 10
66.902862826226141
 20
55.653809283229393
 40
0.1149461659668453
 50
329.22706684987287
 51
359.29805450799842
  0
ARC
  8
_0-2_00
  6
CONTINUOUS
 62
    3
 10
66.906836785844206
 20
55.652112715049668
 40
0.1109639548273311
 50
0.1488978140985129
 51
31.325980828074567
  0
ARC
  8
_0-2_00
  6
CONTINUOUS
 62
    3
 10
66.869637489904306
 20
55.630999864773905
 40
0.1537227035264641
 50
30.839546970846094
 51
56.016892700956809
  0
ARC
  8
_0-2_00
  6
CONTINUOUS
 62
    3
 10
66.825629762662885
 20
55.572329851530711
 40
0.2270001909212074
 50
55.083511467518953
 51
74.414155324237086
  0
ARC
  8
_0-2_00
  6
CONTINUOUS
 62
    3
 10
66.806278636819485
 20
55.514075405421394
 40
0.2883273372705828
 50
73.82044492991561
 51
90.194400221812316
  0
ARC
  8
_0-2_00
  6
CONTINUOUS
 62
    3
 10
66.805102440098935
 20
55.508517738353603
 40
0.2938834113874914
 50
89.961412187264884
 51
106.02374266100716
  0
ARC
  8
_0-2_00
  6
CONTINUOUS
 62
    3
 10
66.790345249603746
 20
55.560935348087867
 40
0.2394290215104407
 50
106.09201419329732
 51
124.41031901494668
  0
ARC
  8
_0-2_00
  6
CONTINUOUS
 62
    3
 10
66.74904295080961
 20
55.623351722306431
 40
0.1645985638684572
 50
124.827195067765
 51
148.31636526043209
  0
ARC
  8
_0-2_00
  6
CONTINUOUS
 62
    3
 10
66.707737905717835
 20
55.65099288295275
 40
0.1149461659666869
 50
149.22706684985064
 51
179.29805450797625
  0
ARC
  8
_0-2_00
  6
CONTINUOUS
 62
    3
 10
66.80530036597176
 20
56.53990108309111
 40
0.3624999999999998
 50
46.397181027328024
 51
133.60281897273538
  0
ARC
  8
_0-2_00
  6
CONTINUOUS
 62
    3
 10
66.805300365971945
 20
55.864901083091013
 40
0.3625000000000052
 50
226.3971810273282
 51
313.60281897273541
  0
LINE
  8
_0-2_00
  6
CONTINUOUS
 62
    3
 10
63.055300365267058
 20
54.827401083089086
 11
63.055300365265978
 21
57.577401083089086
  0
LINE
  8
_0-2_00
  6
CONTINUOUS
 62
    3
 10
63.8553003652668
 20
55.488258240234899
 11
63.855300365266253
 21
56.916543925943387
  0
LINE
  8
_0-2_00
  6
CONTINUOUS
 62
    3
 10
63.264324985328543
 20
54.8274010830892
 11
63.055300365267051
 21
54.827401083089086
  0
LINE
  8
_0-2_00
  6
CONTINUOUS
 62
    3
 10
63.264324985327001
 20
57.5774010830892
 11
63.055300365265992
 21
57.577401083089086
  0
ARC
  8
_0-2_00
  6
CONTINUOUS
 62
    3
 10
63.264324985327292
 20
57.0774010830892
 40
0.5
 50
24.624318352195917
 51
89.999999999999986
  0
ARC
  8
_0-2_00
  6
CONTINUOUS
 62
    3
 10
63.264324985328273
 20
55.3274010830892
 40
0.5
 50
270
 51
335.37568164786779
  0
ARC
  8
_0-2_00
  6
CONTINUOUS
 62
    3
 10
61.355300365266523
 20
56.202401083088205
 40
2.6000000000000001
 50
15.94236860565092
 51
24.624318352195875
  0
ARC
  8
_0-2_00
  6
CONTINUOUS
 62
    3
 10
61.355300365266523
 20
56.202401083088205
 40
2.6000000000000001
 50
335.37568164786779
 51
344.05763139439392
  0
LINE
  8
_0-2_00
  6
CONTINUOUS
 62
    3
 10
66.555300365972045
 20
55.689901083090888
 11
63.855300365266729
 21
55.68990108308941
  0
LINE
  8
_0-2_00
  6
CONTINUOUS
 62
    3
 10
66.555300365971661
 20
56.714901083090894
 11
63.855300365266316
 21
56.714901083089387
  0
LINE
  8
_0-2_00
  6
CONTINUOUS
 62
    3
 10
68.755300365989342
 20
56.802401083093514
 11
68.707710726531133
 21
56.8024010830934
  0
ARC
  8
_0-2_00
  6
CONTINUOUS
 62
    3
 10
68.707710726531133
 20
56.807401083093396
 40
0.005
 50
218.46060165668271
 51
270
  0
ARC
  8
_0-2_00
  6
CONTINUOUS
 62
    3
 10
68.005300365968139
 20
59.177401083092292
 40
3.6250000000000062
 50
260.47271661861168
 51
279.52728338151542
  0
LINE
  8
_0-2_00
  6
CONTINUOUS
 62
    3
 10
68.755300365989342
 20
56.802401083093088
 11
68.60530036597163
 21
56.802401083092889
  0
LINE
  8
_0-2_00
  6
CONTINUOUS
 62
    3
 10
67.405300365971613
 20
56.80240108309161
 11
67.055300365971618
 21
56.802401083091212
  0
LINE
  8
_0-2_00
  6
CONTINUOUS
 62
    3
 10
68.755300365989825
 20
55.602401083093099
 11
68.605300365972084
 21
55.6024010830929
  0
LINE
  8
_0-2_00
  6
CONTINUOUS
 62
    3
 10
67.405300365972096
 20
55.602401083091593
 11
67.055300365972073
 21
55.602401083091195
  0
LINE
  8
_0-2_00
  6
CONTINUOUS
 62
    3
 10
69.355300365989677
 20
55.927401083092491
 11
69.35530036598945
 21
56.477401083092502
  0
LINE
  8
_0-2_00
  6
CONTINUOUS
 62
    3
 10
69.555300365989694
 20
55.95240108309261
 11
69.355300365989677
 21
55.952401083092496
  0
LINE
  8
_0-2_00
  6
CONTINUOUS
 62
    3
 10
69.555300365989496
 20
56.45240108309261
 11
69.355300365989493
 21
56.452401083092496
  0
ARC
  8
_0-2_00
  6
CONTINUOUS
 62
    3
 10
69.555300365989496
 20
56.402401083092599
 40
0.05
 50
0
 51
90
  0
ARC
  8
_0-2_00
  6
CONTINUOUS
 62
    3
 10
69.555300365989666
 20
56.002401083092593
 40
0.05
 50
270
 51
0
  0
LINE
  8
_0-2_00
  6
CONTINUOUS
 62
    3
 10
69.605300365989606
 20
56.152401083092599
 11
69.505300365989598
 21
56.152401083092514
  0
LINE
  8
_0-2_00
  6
CONTINUOUS
 62
    3
 10
69.605300365989564
 20
56.252401083092593
 11
69.505300365989569
 21
56.252401083092593
  0
LINE
  8
_0-2_00
  6
CONTINUOUS
 62
    3
 10
69.605300365989621
 20
56.002401083092593
 11
69.605300365989564
 21
56.152401083092599
  0
LINE
  8
_0-2_00
  6
CONTINUOUS
 62
    3
 10
69.605300365989535
 20
56.252401083092593
 11
69.605300365989478
 21
56.402401083092599
  0
LINE
  8
_0-2_00
  6
CONTINUOUS
 62
    3
 10
69.505300365989598
 20
56.152401083092514
 11
69.505300365989569
 21
56.252401083092593
  0
LINE
  8
_0-2_00
  6
CONTINUOUS
 62
    3
 10
69.10530036598982
 20
55.552401083092406
 11
69.105300365989322
 21
56.852401083092388
  0
LINE
  8
_0-2_00
  6
CONTINUOUS
 62
    3
 10
68.755300365989825
 20
55.552401083092207
 11
68.755300365989314
 21
56.85240108309219
  0
ARC
  8
_0-2_00
  6
CONTINUOUS
 62
    3
 10
68.930300365989481
 20
56.571151083092303
 40
0.3312500000000225
 50
58.109208198196072
 51
121.89079180186678
  0
ARC
  8
_0-2_00
  6
CONTINUOUS
 62
    3
 10
68.930300365989694
 20
55.833651083092292
 40
0.3312500000000058
 50
238.1092081981844
 51
301.89079180187861
  0
LINE
  8
_0-2_00
  6
CONTINUOUS
 62
    3
 10
69.355300365989507
 20
56.477401083092502
 11
69.105300365989308
 21
56.852401083092388
  0
LINE
  8
_0-2_00
  6
CONTINUOUS
 62
    3
 10
69.355300365989706
 20
55.927401083092491
 11
69.105300365989848
 21
55.552401083092406
  0
ARC
  8
_0-2_00
  6
CONTINUOUS
 62
    3
 10
69.225022799698465
 20
56.202073993699713
 40
0.4447225539847931
 50
179.95785947162852
 51
193.01143817453442
  0
ARC
  8
_0-2_00
  6
CONTINUOUS
 62
    3
 10
69.117762667643717
 20
56.177647586929524
 40
0.3347169967311656
 50
193.07132971066721
 51
208.72401953692679
  0
ARC
  8
_0-2_00
  6
CONTINUOUS
 62
    3
 10
68.989971301421903
 20
56.109264323330436
 40
0.1897921505580627
 50
209.16087154099017
 51
231.91346987508206
  0
ARC
  8
_0-2_00
  6
CONTINUOUS
 62
    3
 10
68.933212553322278
 20
56.040709905465079
 40
0.1008508775528923
 50
233.26904172982188
 51
268.34528718176898
  0
ARC
  8
_0-2_00
  6
CONTINUOUS
 62
    3
 10
68.929698824097954
 20
56.034071963190641
 40
0.0941728013343253
 50
270.36598727066951
 51
308.01968381773958
  0
ARC
  8
_0-2_00
  6
CONTINUOUS
 62
    3
 10
68.886291579876868
 20
56.095870001674285
 40
0.1696372500452424
 50
306.71340328755372
 51
332.21225529637405
  0
ARC
  8
_0-2_00
  6
CONTINUOUS
 62
    3
 10
68.766137360333289
 20
56.168751534443068
 40
0.3100280379156558
 50
330.64834214913714
 51
347.55630860326886
  0
ARC
  8
_0-2_00
  6
CONTINUOUS
 62
    3
 10
68.646942458880616
 20
56.2007822537647
 40
0.4333609307156182
 50
346.81667220631317
 51
0.2140301475239076
  0
ARC
  8
_0-2_00
  6
CONTINUOUS
 62
    3
 10
68.635577932299825
 20
56.202728172484754
 40
0.4447225539851645
 50
359.95785947162307
 51
13.011438174529042
  0
ARC
  8
_0-2_00
  6
CONTINUOUS
 62
    3
 10
68.742838064355027
 20
56.227154579254972
 40
0.3347169967310663
 50
13.071329710673554
 51
28.724019536933209
  0
ARC
  8
_0-2_00
  6
CONTINUOUS
 62
    3
 10
68.870629430576884
 20
56.295537842854017
 40
0.1897921505579535
 50
29.160871541018452
 51
51.913469875110337
  0
ARC
  8
_0-2_00
  6
CONTINUOUS
 62
    3
 10
68.927388178676239
 20
56.364092260719389
 40
0.1008508775529388
 50
53.269041729745979
 51
88.345287181693067
  0
ARC
  8
_0-2_00
  6
CONTINUOUS
 62
    3
 10
68.930901907900818
 20
56.370730202993826
 40
0.0941728013343693
 50
90.365987270745563
 51
128.01968381781538
  0
ARC
  8
_0-2_00
  6
CONTINUOUS
 62
    3
 10
68.974309152121663
 20
56.308932164510168
 40
0.1696372500451457
 50
126.71340328752555
 51
152.21225529634569
  0
ARC
  8
_0-2_00
  6
CONTINUOUS
 62
    3
 10
69.09446337166527
 20
56.236050631741421
 40
0.3100280379155667
 50
150.6483421491308
 51
167.55630860326247
  0
ARC
  8
_0-2_00
  6
CONTINUOUS
 62
    3
 10
69.213658273118412
 20
56.204019912419767
 40
0.4333609307159854
 50
166.81667220631863
 51
180.21403014752923
  0
ARC
  8
_0-2_00
  6
CONTINUOUS
 62
    3
 10
68.886646887518708
 20
55.627505017383669
 40
0.1063465723081804
 50
180.05599613665771
 51
206.79401386789525
  0
ARC
  8
_0-2_00
  6
CONTINUOUS
 62
    3
 10
68.902614281212351
 20
55.635171213458449
 40
0.1240559014950937
 50
206.63017023132895
 51
230.81610910415591
  0
ARC
  8
_0-2_00
  6
CONTINUOUS
 62
    3
 10
68.921546093123837
 20
55.6565311724396
 40
0.1525783687591051
 50
230.37336957473542
 51
251.40715113001897
  0
ARC
  8
_0-2_00
  6
CONTINUOUS
 62
    3
 10
68.9298788744928
 20
55.67776499316281
 40
0.1753644166025318
 50
251.03871305447953
 51
270.1377115615586
  0
ARC
  8
_0-2_00
  6
CONTINUOUS
 62
    3
 10
68.930385773953361
 20
55.67979252049696
 40
0.1773914579652813
 50
269.97241402955331
 51
288.85116135440865
  0
ARC
  8
_0-2_00
  6
CONTINUOUS
 62
    3
 10
68.936741006174458
 20
55.660686287676555
 40
0.1572566979679727
 50
288.90912388581637
 51
309.31035540942923
  0
ARC
  8
_0-2_00
  6
CONTINUOUS
 62
    3
 10
68.954514867347825
 20
55.637954778929782
 40
0.1284102745604104
 50
309.59984150100911
 51
332.95387916350597
  0
ARC
  8
_0-2_00
  6
CONTINUOUS
 62
    3
 10
68.972253134570678
 20
55.627910968064604
 40
0.1080484345189341
 50
333.42037212099757
 51
359.72961787444945
  0
ARC
  8
_0-2_00
  6
CONTINUOUS
 62
    3
 10
68.973953844478871
 20
55.627297148800778
 40
0.1063465723084191
 50
0.0559961366269211
 51
26.794013867864546
  0
ARC
  8
_0-2_00
  6
CONTINUOUS
 62
    3
 10
68.957986450785711
 20
55.619630952725998
 40
0.1240559014948818
 50
26.63017023140732
 51
50.816109104234329
  0
ARC
  8
_0-2_00
  6
CONTINUOUS
 62
    3
 10
68.939054638873984
 20
55.598270993744791
 40
0.1525783687591051
 50
50.37336957473542
 51
71.407151130018988
  0
ARC
  8
_0-2_00
  6
CONTINUOUS
 62
    3
 10
68.930721857505006
 20
55.57703717302158
 40
0.1753644166025313
 50
71.03871305447953
 51
90.137711561558604
  0
ARC
  8
_0-2_00
  6
CONTINUOUS
 62
    3
 10
68.930214958044445
 20
55.57500964568743
 40
0.1773914579652811
 50
89.972414029553235
 51
108.8511613544086
  0
ARC
  8
_0-2_00
  6
CONTINUOUS
 62
    3
 10
68.923859725823348
 20
55.594115878507836
 40
0.1572566979679725
 50
108.90912388581633
 51
129.31035540942921
  0
ARC
  8
_0-2_00
  6
CONTINUOUS
 62
    3
 10
68.906085864649711
 20
55.616847387254666
 40
0.1284102745601914
 50
129.59984150093078
 51
152.95387916342762
  0
ARC
  8
_0-2_00
  6
CONTINUOUS
 62
    3
 10
68.888347597427384
 20
55.626891198119843
 40
0.1080484345191776
 50
153.42037212102841
 51
179.72961787448014
  0
ARC
  8
_0-2_00
  6
CONTINUOUS
 62
    3
 10
68.88664688751976
 20
56.777505017383717
 40
0.1063465723083598
 50
180.05599613663466
 51
206.7940138678722
  0
ARC
  8
_0-2_00
  6
CONTINUOUS
 62
    3
 10
68.902614281212976
 20
56.785171213458511
 40
0.124055901494882
 50
206.63017023140733
 51
230.8161091042343
  0
ARC
  8
_0-2_00
  6
CONTINUOUS
 62
    3
 10
68.921546093125016
 20
56.806531172439662
 40
0.1525783687592567
 50
230.37336957463324
 51
251.4071511299168
  0
ARC
  8
_0-2_00
  6
CONTINUOUS
 62
    3
 10
68.929878874493426
 20
56.827764993162859
 40
0.1753644166024898
 50
251.03871305456238
 51
270.13771156164137
  0
ARC
  8
_0-2_00
  6
CONTINUOUS
 62
    3
 10
68.930385773954512
 20
56.829792520497008
 40
0.1773914579652388
 50
269.97241402947043
 51
288.85116135432577
  0
ARC
  8
_0-2_00
  6
CONTINUOUS
 62
    3
 10
68.936741006175026
 20
56.810686287676617
 40
0.1572566979681289
 50
288.90912388591858
 51
309.31035540953144
  0
ARC
  8
_0-2_00
  6
CONTINUOUS
 62
    3
 10
68.954514867348976
 20
56.787954778929844
 40
0.1284102745601913
 50
309.59984150093078
 51
332.95387916342759
  0
ARC
  8
_0-2_00
  6
CONTINUOUS
 62
    3
 10
68.972253134571361
 20
56.777910968064653
 40
0.1080484345191163
 50
333.42037212102065
 51
359.72961787447252
  0
ARC
  8
_0-2_00
  6
CONTINUOUS
 62
    3
 10
68.973953844479922
 20
56.777297148800827
 40
0.1063465723082399
 50
0.0559961366499841
 51
26.79401386788761
  0
ARC
  8
_0-2_00
  6
CONTINUOUS
 62
    3
 10
68.957986450786393
 20
56.769630952726047
 40
0.1240559014950406
 50
26.630170231348529
 51
50.816109104175538
  0
ARC
  8
_0-2_00
  6
CONTINUOUS
 62
    3
 10
68.939054638874779
 20
56.748270993744896
 40
0.1525783687591429
 50
50.373369574709884
 51
71.407151129993437
  0
ARC
  8
_0-2_00
  6
CONTINUOUS
 62
    3
 10
68.930721857505972
 20
56.727037173021685
 40
0.1753644166025173
 50
71.038713054507127
 51
90.137711561586229
  0
ARC
  8
_0-2_00
  6
CONTINUOUS
 62
    3
 10
68.930214958045241
 20
56.725009645687535
 40
0.1773914579652669
 50
89.972414029525652
 51
108.85116135438102
  0
ARC
  8
_0-2_00
  6
CONTINUOUS
 62
    3
 10
68.923859725824315
 20
56.744115878507941
 40
0.1572566979680115
 50
108.90912388584191
 51
129.31035540945476
  0
ARC
  8
_0-2_00
  6
CONTINUOUS
 62
    3
 10
68.906085864650805
 20
56.766847387254714
 40
0.1284102745603557
 50
129.59984150098956
 51
152.95387916348639
  0
ARC
  8
_0-2_00
  6
CONTINUOUS
 62
    3
 10
68.88834759742808
 20
56.776891198119891
 40
0.1080484345189954
 50
153.42037212100533
 51
179.72961787445706
  0
LINE
  8
_0-2_00
  6
CONTINUOUS
 62
    3
 10
68.755300365989356
 20
56.802401083091894
 11
68.707710726531133
 21
56.802401083091809
  0
ARC
  8
_0-2_00
  6
CONTINUOUS
 62
    3
 10
68.707710726531133
 20
56.807401083091804
 40
0.005
 50
218.46060165668271
 51
270
  0
ARC
  8
_0-2_00
  6
CONTINUOUS
 62
    3
 10
68.005300365975586
 20
53.227401083092204
 40
3.6250000000000511
 50
95.024758459455683
 51
99.527283381515574
  0
ARC
  8
_0-2_00
  6
CONTINUOUS
 62
    3
 10
68.005300365975586
 20
53.227401083092204
 40
3.6250000000000511
 50
80.472716618611457
 51
84.9752415407294
  0
ARC
  8
_0-2_00
  6
CONTINUOUS
 62
    3
 10
68.005300365971863
 20
56.202401083092212
 40
0.4375
 50
136.52830045650211
 51
43.471699544226624
  0
LINE
  8
_0-2_00
  6
CONTINUOUS
 62
    3
 10
68.344734122701595
 20
56.740317595552114
 11
68.64086660924211
 21
56.227401083092303
  0
LINE
  8
_0-2_00
  6
CONTINUOUS
 62
    3
 10
68.640866609242096
 20
56.177401083092292
 11
68.344734122701567
 21
55.664484570632396
  0
LINE
  8
_0-2_00
  6
CONTINUOUS
 62
    3
 10
68.301432852512363
 20
55.639484570632391
 11
67.709167879431348
 21
55.639484570632391
  0
LINE
  8
_0-2_00
  6
CONTINUOUS
 62
    3
 10
67.665866609242102
 20
55.664484570632396
 11
67.369734122701601
 21
56.177401083092207
  0
LINE
  8
_0-2_00
  6
CONTINUOUS
 62
    3
 10
67.369734122701601
 20
56.227401083092303
 11
67.66586660924213
 21
56.740317595552199
  0
ARC
  8
_0-2_00
  6
CONTINUOUS
 62
    3
 10
67.709167879431334
 20
56.715317595552108
 40
0.05
 50
115.2995187250834
 51
150.00000000000031
  0
ARC
  8
_0-2_00
  6
CONTINUOUS
 62
    3
 10
67.413035392890819
 20
56.202401083092298
 40
0.05
 50
150.0000000000002
 51
210.0000000000006
  0
ARC
  8
_0-2_00
  6
CONTINUOUS
 62
    3
 10
67.709167879431334
 20
55.689484570632402
 40
0.05
 50
209.99999999999969
 51
270
  0
ARC
  8
_0-2_00
  6
CONTINUOUS
 62
    3
 10
68.301432852512391
 20
55.689484570632402
 40
0.05
 50
270
 51
330.00000000000023
  0
ARC
  8
_0-2_00
  6
CONTINUOUS
 62
    3
 10
68.597565339052892
 20
56.202401083092298
 40
0.05
 50
330.00000000000023
 51
29.999999999999787
  0
ARC
  8
_0-2_00
  6
CONTINUOUS
 62
    3
 10
68.301432852512391
 20
56.715317595552108
 40
0.05
 50
29.999999999999755
 51
64.700481280109557
  0
LINE
  8
_0-2_00
  6
CONTINUOUS
 62
    3
 10
68.552800365912574
 20
59.702401083154797
 11
68.552800365910144
 21
59.352401083092502
  0
LINE
  8
_0-2_00
  6
CONTINUOUS
 62
    3
 10
67.45780036591259
 20
59.702401083144707
 11
67.457800365910146
 21
59.352401083092104
  0
LINE
  8
_0-2_00
  6
CONTINUOUS
 62
    3
 10
71.307571892587902
 20
79.052401083060602
 11
69.703028837936884
 21
79.052401083059294
  0
LINE
  8
_0-2_00
  6
CONTINUOUS
 62
    3
 10
71.155300365262434
 20
79.077401083060494
 11
71.155300365262434
 21
79.052401083060488
  0
LINE
  8
_0-2_00
  6
CONTINUOUS
 62
    3
 10
69.855300365262451
 20
79.077401083059499
 11
69.855300365262451
 21
79.052401083059493
  0
LINE
  8
_0-2_00
  6
CONTINUOUS
 62
    3
 10
71.030300365262434
 20
79.177401083060403
 11
69.980300365262451
 21
79.177401083059607
  0
ARC
  8
_0-2_00
  6
CONTINUOUS
 62
    3
 10
70.505300365266763
 20
73.677401083059891
 40
5.5250000000000181
 50
84.547378012232357
 51
95.452621987857412
  0
LINE
  8
_0-2_00
  6
CONTINUOUS
 62
    3
 10
71.155300365262434
 20
79.077401083060494
 11
69.855300365262451
 21
79.077401083059414
  0
LINE
  8
_0-2_00
  6
CONTINUOUS
 62
    3
 10
69.85530036526248
 20
79.077401083059499
 11
69.980300365262451
 21
79.177401083059607
  0
LINE
  8
_0-2_00
  6
CONTINUOUS
 62
    3
 10
71.155300365262434
 20
79.077401083060408
 11
71.030300365262434
 21
79.177401083060289
  0
LINE
  8
_0-2_00
  6
CONTINUOUS
 62
    3
 10
69.615765481540961
 20
78.202401083047107
 11
69.65308283363305
 21
79.004724153026899
  0
LINE
  8
_0-2_00
  6
CONTINUOUS
 62
    3
 10
71.394835248984037
 20
78.20240108304651
 11
71.357517896891864
 21
79.004724153028207
  0
ARC
  8
_0-2_00
  6
CONTINUOUS
 62
    3
 10
69.703028837936941
 20
79.002401083059311
 40
0.05
 50
90
 51
177.33699923393289
  0
ARC
  8
_0-2_00
  6
CONTINUOUS
 62
    3
 10
71.307571892587958
 20
79.00240108306059
 40
0.05
 50
2.66300076606707
 51
90
  0
LINE
  8
_0-2_00
  6
CONTINUOUS
 62
    3
 10
70.582739389651124
 20
78.202401083046794
 11
70.680300365262497
 21
79.002401083060192
  0
LINE
  8
_0-2_00
  6
CONTINUOUS
 62
    3
 10
70.330300365262474
 20
79.002401083059794
 11
70.427861340873818
 21
78.202401083046794
  0
LINE
  8
_0-2_00
  6
CONTINUOUS
 62
    3
 10
69.855300365262451
 20
79.00240108305951
 11
69.777251584773438
 21
78.202401083047107
  0
LINE
  8
_0-2_00
  6
CONTINUOUS
 62
    3
 10
69.655300365262462
 20
79.0173005090939
 11
69.674891188318156
 21
78.202401083047107
  0
LINE
  8
_0-2_00
  6
CONTINUOUS
 62
    3
 10
71.155300365262406
 20
79.002401083060505
 11
71.233349145751575
 21
78.20240108304651
  0
LINE
  8
_0-2_00
  6
CONTINUOUS
 62
    3
 10
71.357517896891864
 20
79.004724153028207
 11
71.316736830537451
 21
78.20240108304651
  0
LINE
  8
_0-2_00
  6
CONTINUOUS
 62
    3
 10
199.5599122599248
 20
-31.845707424501413
 11
206.3099122599248
 21
-31.845707424499921
  0
LINE
  8
_0-2_00
  6
CENTER
 62
    3
 10
206.309912259924
 20
-33.08191069738416
 11
206.3099122599522
 21
11.868164452838755
  0
LINE
  8
_0-2_00
  6
CONTINUOUS
 62
    3
 10
197.684912259936
 20
-13.34570742448966
 11
206.3099122599364
 21
-13.345707424482015
  0
LINE
  8
_0-2_00
  6
CONTINUOUS
 62
    3
 10
197.43491225993461
 20
-16.149324395061939
 11
197.4349122599362
 21
-13.59570742448949
  0
LINE
  8
_0-2_00
  6
CONTINUOUS
 62
    3
 10
199.5599122599248
 20
-31.845707424501413
 11
199.6023437814286
 21
-30.487898736406777
  0
ARC
  8
_0-2_00
  6
CONTINUOUS
 62
    3
 10
199.85222180045031
 20
-30.495707424501347
 40
0.25
 50
105.3659908881075
 51
178.21008939171821
  0
LINE
  8
_0-2_00
  6
CONTINUOUS
 62
    3
 10
199.85909875674631
 20
-30.166913663113405
 11
200.6513331091918
 21
-21.089769379646128
  0
LINE
  8
_0-2_00
  6
CONTINUOUS
 62
    3
 10
199.68979319497029
 20
-19.202026783908963
 11
198.8885834196731
 21
-18.720096092001398
  0
ARC
  8
_0-2_00
  6
CONTINUOUS
 62
    3
 10
200.43491225993461
 20
-16.149324395063815
 40
3
 50
180
 51
238.97293324011488
  0
ARC
  8
_0-2_00
  6
CONTINUOUS
 62
    3
 10
198.65890730146259
 20
-20.915874581867371
 40
2
 50
355.01198271248523
 51
58.972933240114962
  0
ARC
  8
_0-2_00
  6
CONTINUOUS
 62
    3
 10
199.7594774663599
 20
-30.158218923224467
 40
0.1
 50
285.36599088810948
 51
355.01198271248558
  0
ARC
  8
_0-2_00
  6
CONTINUOUS
 62
    3
 10
197.6849122599362
 20
-13.59570742448966
 40
0.25
 50
90
 51
180
  0
LINE
  8
_0-2_00
  6
CONTINUOUS
 62
    3
 10
213.0599122599248
 20
-31.845707424509868
 11
206.3099122599248
 21
-31.845707424499921
  0
LINE
  8
_0-2_00
  6
CONTINUOUS
 62
    3
 10
214.93491225993679
 20
-13.345707424500461
 11
206.3099122599364
 21
-13.345707424482001
  0
LINE
  8
_0-2_00
  6
CONTINUOUS
 62
    3
 10
215.18491225993461
 20
-16.14932439507308
 11
215.1849122599362
 21
-13.595707424500631
  0
LINE
  8
_0-2_00
  6
CONTINUOUS
 62
    3
 10
213.0599122599248
 20
-31.845707424509897
 11
213.01748073842271
 21
-30.487898736415161
  0
ARC
  8
_0-2_00
  6
CONTINUOUS
 62
    3
 10
212.76760271940091
 20
-30.495707424509447
 40
0.25
 50
1.789910608209905
 51
74.634009111820632
  0
LINE
  8
_0-2_00
  6
CONTINUOUS
 62
    3
 10
212.7607257631052
 20
-30.166913663121505
 11
211.96849141067111
 21
-21.089769379653234
  0
LINE
  8
_0-2_00
  6
CONTINUOUS
 62
    3
 10
212.93003132489511
 20
-19.20202678391729
 11
213.73124110019299
 21
-18.720096092010749
  0
ARC
  8
_0-2_00
  6
CONTINUOUS
 62
    3
 10
212.18491225993461
 20
-16.149324395071176
 40
3
 50
301.02706675981318
 51
359.99999999992821
  0
ARC
  8
_0-2_00
  6
CONTINUOUS
 62
    3
 10
213.96091721840071
 20
-20.915874581876977
 40
2
 50
121.0270667598132
 51
184.98801728744289
  0
ARC
  8
_0-2_00
  6
CONTINUOUS
 62
    3
 10
212.86034705349181
 20
-30.158218923232681
 40
0.1
 50
184.98801728744263
 51
254.63400911181873
  0
ARC
  8
_0-2_00
  6
CONTINUOUS
 62
    3
 10
214.9349122599362
 20
-13.595707424500461
 40
0.25
 50
359.99999999992821
 51
89.999999999928193
  0
LINE
  8
_0-2_00
  6
CONTINUOUS
 62
    3
 10
210.55991225992571
 20
-30.369243518355773
 11
210.55991225993191
 21
-20.458251522911382
  0
LINE
  8
_0-2_00
  6
CONTINUOUS
 62
    3
 10
206.3099122599323
 20
-19.783512888283127
 11
210.05200336661761
 21
-19.783512888283127
  0
LINE
  8
_0-2_00
  6
CONTINUOUS
 62
    3
 10
212.05991225993219
 20
-19.933512888283133
 11
211.1025680865896
 21
-19.837778470948876
  0
LINE
  8
_0-2_00
  6
CONTINUOUS
 62
    3
 10
202.05991225992571
 20
-30.369243518350459
 11
202.05991225993191
 21
-20.458251522906053
  0
LINE
  8
_0-2_00
  6
CONTINUOUS
 62
    3
 10
206.3099122599323
 20
-19.783512888283127
 11
202.56782115324711
 21
-19.783512888278423
  0
LINE
  8
_0-2_00
  6
CONTINUOUS
 62
    3
 10
200.55991225993219
 20
-19.933512888275914
 11
201.51725643327501
 21
-19.837778470942851
  0
LINE
  8
_0-2_00
  6
CONTINUOUS
 62
    3
 10
215.0549494841795
 20
5.6440590357784401
 11
214.84912268116619
 21
-4.7244734910687924
  0
LINE
  8
_0-2_00
  6
CONTINUOUS
 62
    3
 10
197.5648750356803
 20
5.6440590358989908
 11
197.77070183878951
 21
-4.7244734911444937
  0
LINE
  8
_0-2_00
  6
CONTINUOUS
 62
    3
 10
215.30991225987611
 20
5.6440590358989766
 11
215.40058664369559
 21
5.6440590358989766
  0
ARC
  8
_0-2_00
  6
CONTINUOUS
 62
    3
 10
206.3099122600139
 20
-442.60594096410102
 40
450
 50
88.923136532275436
 51
90
  0
LINE
  8
_0-2_00
  6
CONTINUOUS
 62
    3
 10
215.5503142167866
 20
5.8030952882342319
 11
215.5016228140916
 21
6.6098949752541927
  0
ARC
  8
_0-2_00
  6
CONTINUOUS
 62
    3
 10
214.7529849486364
 20
6.5647137135778877
 40
0.75
 50
3.4536852334232169
 51
88.923136532275478
  0
ARC
  8
_0-2_00
  6
CONTINUOUS
 62
    3
 10
215.40058664369559
 20
5.7940590358989681
 40
0.1499999999999999
 50
270
 51
3.4536852334234194
  0
LINE
  8
_0-2_00
  6
CONTINUOUS
 62
    3
 10
197.30991225998761
 20
5.6440590358191542
 11
197.21923787616811
 21
5.6440590358183442
  0
ARC
  8
_0-2_00
  6
CONTINUOUS
 62
    3
 10
206.30991226382571
 20
-442.60594096410102
 40
450
 50
90.00000000050818
 51
91.076863468232801
  0
LINE
  8
_0-2_00
  6
CONTINUOUS
 62
    3
 10
197.0695103030757
 20
5.8030952881522637
 11
197.11820170576351
 21
6.6098949751726934
  0
ARC
  8
_0-2_00
  6
CONTINUOUS
 62
    3
 10
197.8668395712192
 20
6.5647137135029823
 40
0.75
 50
91.07686346823273
 51
176.54631476708499
  0
ARC
  8
_0-2_00
  6
CONTINUOUS
 62
    3
 10
197.2192378761668
 20
5.7940590358183499
 40
0.1499999999999999
 50
176.54631476708479
 51
270.00000000050818
  0
LINE
  8
_0-2_00
  6
CONTINUOUS
 62
    3
 10
196.10991225997341
 20
3.8470261151601903
 11
195.5599122599732
 21
3.8470261151605598
  0
LINE
  8
_0-2_00
  6
CONTINUOUS
 62
    3
 10
196.10991225997401
 20
4.4820261151601954
 11
195.5599122599736
 21
4.4820261151605649
  0
LINE
  8
_0-2_00
  6
CONTINUOUS
 62
    3
 10
196.10991225997321
 20
3.6145261151602028
 11
196.10991225997421
 21
4.7145261151601972
  0
LINE
  8
_0-2_00
  6
CONTINUOUS
 62
    3
 10
196.70991225997321
 20
3.6145261151597907
 11
196.7099122599742
 21
4.7145261151597708
  0
ARC
  8
_0-2_00
  6
CONTINUOUS
 62
    3
 10
196.40991225997379
 20
4.1520261151599982
 40
0.6374999999999878
 50
61.927513064107735
 51
118.0724869358119
  0
ARC
  8
_0-2_00
  6
CONTINUOUS
 62
    3
 10
196.40991225997359
 20
4.1770261151599897
 40
0.6375
 50
241.92751306410668
 51
298.07248693581278
  0
ARC
  8
_0-2_00
  6
CONTINUOUS
 62
    3
 10
196.36445299355631
 20
4.1646249039252012
 40
0.2295407548335541
 50
180.02465871243388
 51
204.65937784856757
  0
ARC
  8
_0-2_00
  6
CONTINUOUS
 62
    3
 10
196.38106768116799
 20
4.1719324437449785
 40
0.2476892963161695
 50
204.59208551591007
 51
228.0394270613973
  0
ARC
  8
_0-2_00
  6
CONTINUOUS
 62
    3
 10
196.4007870506116
 20
4.1923169808744376
 40
0.2760340248600716
 50
227.82481524161722
 51
249.62325360574124
  0
ARC
  8
_0-2_00
  6
CONTINUOUS
 62
    3
 10
196.40947270010307
 20
4.2125971544817986
 40
0.2980713634270695
 50
249.41551064322391
 51
270.08449297062236
  0
ARC
  8
_0-2_00
  6
CONTINUOUS
 62
    3
 10
196.41000142178601
 20
4.2145348815583645
 40
0.3000087796477006
 50
269.98297184760594
 51
290.51702453825766
  0
ARC
  8
_0-2_00
  6
CONTINUOUS
 62
    3
 10
196.4166264723753
 20
4.1962861240369591
 40
0.2805956553881978
 50
290.55604942655191
 51
311.99588172590586
  0
ARC
  8
_0-2_00
  6
CONTINUOUS
 62
    3
 10
196.43514351226867
 20
4.1745882261003828
 40
0.2520817354218524
 50
312.16767623042335
 51
335.20081119195527
  0
ARC
  8
_0-2_00
  6
CONTINUOUS
 62
    3
 10
196.45360396563936
 20
4.1650116525915593
 40
0.2313088039348948
 50
335.43623238463664
 51
359.87973105389642
  0
ARC
  8
_0-2_00
  6
CONTINUOUS
 62
    3
 10
196.45537152640543
 20
4.1644273263945166
 40
0.2295407548336113
 50
0.0246587124988935
 51
24.65937784863252
  0
ARC
  8
_0-2_00
  6
CONTINUOUS
 62
    3
 10
196.43875683879369
 20
4.1571197865749951
 40
0.2476892963161685
 50
24.592085515910025
 51
48.039427061397404
  0
ARC
  8
_0-2_00
  6
CONTINUOUS
 62
    3
 10
196.41903746935014
 20
4.1367352494458203
 40
0.2760340248598153
 50
47.824815241584844
 51
69.62325360570884
  0
ARC
  8
_0-2_00
  6
CONTINUOUS
 62
    3
 10
196.41035181985873
 20
4.116455075838175
 40
0.298071363427069
 50
69.415510643223911
 51
90.084492970622392
  0
ARC
  8
_0-2_00
  6
CONTINUOUS
 62
    3
 10
196.40982309817579
 20
4.1145173487616091
 40
0.3000087796477001
 50
89.982971847605882
 51
110.51702453825764
  0
ARC
  8
_0-2_00
  6
CONTINUOUS
 62
    3
 10
196.40319804758644
 20
4.1327661062827161
 40
0.2805956553884594
 50
110.55604942651952
 51
131.99588172587346
  0
ARC
  8
_0-2_00
  6
CONTINUOUS
 62
    3
 10
196.38468100769302
 20
4.1544640042196477
 40
0.2520817354218097
 50
132.16767623043631
 51
155.20081119196828
  0
ARC
  8
_0-2_00
  6
CONTINUOUS
 62
    3
 10
196.36622055432241
 20
4.1640405777286134
 40
0.2313088039348515
 50
155.43623238468533
 51
179.87973105394516
  0
ARC
  8
_0-2_00
  6
CONTINUOUS
 62
    3
 10
196.20222892092804
 20
4.6654864127276738
 40
0.0673235101016694
 50
180.81729047596946
 51
226.45177605674934
  0
ARC
  8
_0-2_00
  6
CONTINUOUS
 62
    3
 10
196.2786295526422
 20
4.7330911051534201
 40
0.1691892682958099
 50
223.47116050074294
 51
248.0758622281854
  0
ARC
  8
_0-2_00
  6
CONTINUOUS
 62
    3
 10
196.36844168088021
 20
4.9194195935855873
 40
0.3758276876538886
 50
245.97982370918615
 51
260.23126192702927
  0
ARC
  8
_0-2_00
  6
CONTINUOUS
 62
    3
 10
196.40791723204802
 20
5.1041919009768861
 40
0.5646693101352993
 50
259.46490031461502
 51
270.20243161147056
  0
ARC
  8
_0-2_00
  6
CONTINUOUS
 62
    3
 10
196.41031498976858
 20
5.121802952370814
 40
0.5822769764841565
 50
269.9603715759564
 51
280.37229649764708
  0
ARC
  8
_0-2_00
  6
CONTINUOUS
 62
    3
 10
196.44042043121658
 20
4.9555136797151391
 40
0.4132849345831691
 50
280.41746843880617
 51
293.37144592471748
  0
ARC
  8
_0-2_00
  6
CONTINUOUS
 62
    3
 10
196.52468438727493
 20
4.7573615423033573
 40
0.1979679659138423
 50
293.73460035982964
 51
314.71837691096039
  0
ARC
  8
_0-2_00
  6
CONTINUOUS
 62
    3
 10
196.60932096612535
 20
4.6691074517338649
 40
0.0757299963795881
 50
316.19919749322298
 51
356.53173597384932
  0
ARC
  8
_0-2_00
  6
CONTINUOUS
 62
    3
 10
196.61759559903496
 20
4.6635658175922998
 40
0.0673235101016696
 50
0.8172904759694599
 51
46.45177605674931
  0
ARC
  8
_0-2_00
  6
CONTINUOUS
 62
    3
 10
196.54119496732082
 20
4.5959611251666246
 40
0.169189268295754
 50
43.471160500730193
 51
68.075862228172753
  0
ARC
  8
_0-2_00
  6
CONTINUOUS
 62
    3
 10
196.45138283908278
 20
4.4096326367342726
 40
0.3758276876540006
 50
65.979823709191265
 51
80.231261927034353
  0
ARC
  8
_0-2_00
  6
CONTINUOUS
 62
    3
 10
196.41190728791491
 20
4.2248603293426328
 40
0.5646693101357505
 50
79.464900314619129
 51
90.202431611474665
  0
ARC
  8
_0-2_00
  6
CONTINUOUS
 62
    3
 10
196.40950953019444
 20
4.2072492779502397
 40
0.5822769764830652
 50
89.960371575966107
 51
100.37229649765678
  0
ARC
  8
_0-2_00
  6
CONTINUOUS
 62
    3
 10
196.37940408874647
 20
4.3735385506044651
 40
0.413284934583529
 50
100.41746843879093
 51
113.37144592470234
  0
ARC
  8
_0-2_00
  6
CONTINUOUS
 62
    3
 10
196.29514013268806
 20
4.5716906880166164
 40
0.1979679659138406
 50
113.7346003598295
 51
134.71837691096047
  0
ARC
  8
_0-2_00
  6
CONTINUOUS
 62
    3
 10
196.21050355383767
 20
4.6599447785860661
 40
0.0757299963796043
 50
136.1991974931943
 51
176.53173597382084
  0
ARC
  8
_0-2_00
  6
CONTINUOUS
 62
    3
 10
196.20222892092681
 20
3.6654864127277733
 40
0.0673235101017135
 50
180.81729047605512
 51
226.45177605683506
  0
ARC
  8
_0-2_00
  6
CONTINUOUS
 62
    3
 10
196.27862955264095
 20
3.7330911051531501
 40
0.1691892682955893
 50
223.47116050069209
 51
248.07586222813455
  0
ARC
  8
_0-2_00
  6
CONTINUOUS
 62
    3
 10
196.36844168087893
 20
3.919419593585701
 40
0.3758276876539982
 50
245.97982370919124
 51
260.23126192703444
  0
ARC
  8
_0-2_00
  6
CONTINUOUS
 62
    3
 10
196.40791723204677
 20
4.1041919009773409
 40
0.564669310135753
 50
259.46490031461917
 51
270.20243161147465
  0
ARC
  8
_0-2_00
  6
CONTINUOUS
 62
    3
 10
196.41031498976733
 20
4.1218029523701887
 40
0.5822769764835327
 50
269.96037157596197
 51
280.37229649765266
  0
ARC
  8
_0-2_00
  6
CONTINUOUS
 62
    3
 10
196.44042043121527
 20
3.9555136797151391
 40
0.4132849345831691
 50
280.41746843880617
 51
293.37144592471748
  0
ARC
  8
_0-2_00
  6
CONTINUOUS
 62
    3
 10
196.52468438727362
 20
3.7573615423033573
 40
0.1979679659138423
 50
293.73460035982964
 51
314.71837691096039
  0
ARC
  8
_0-2_00
  6
CONTINUOUS
 62
    3
 10
196.6093209661241
 20
3.6691074517340212
 40
0.0757299963796542
 50
316.19919749310873
 51
356.53173597373512
  0
ARC
  8
_0-2_00
  6
CONTINUOUS
 62
    3
 10
196.61759559903371
 20
3.6635658175921577
 40
0.0673235101017284
 50
0.8172904760837416
 51
46.451776056863594
  0
ARC
  8
_0-2_00
  6
CONTINUOUS
 62
    3
 10
196.54119496731954
 20
3.5959611251668235
 40
0.1691892682955885
 50
43.471160500692086
 51
68.075862228134653
  0
ARC
  8
_0-2_00
  6
CONTINUOUS
 62
    3
 10
196.45138283908156
 20
3.4096326367343863
 40
0.375827687653891
 50
65.979823709186178
 51
80.231261927029266
  0
ARC
  8
_0-2_00
  6
CONTINUOUS
 62
    3
 10
196.41190728791372
 20
3.2248603293424765
 40
0.5646693101359017
 50
79.464900314620508
 51
90.202431611476072
  0
ARC
  8
_0-2_00
  6
CONTINUOUS
 62
    3
 10
196.40950953019316
 20
3.207249277949785
 40
0.582276976483533
 50
89.960371575961915
 51
100.3722964976526
  0
ARC
  8
_0-2_00
  6
CONTINUOUS
 62
    3
 10
196.37940408874522
 20
3.3735385506048488
 40
0.4132849345831674
 50
100.41746843880614
 51
113.37144592471756
  0
ARC
  8
_0-2_00
  6
CONTINUOUS
 62
    3
 10
196.29514013268687
 20
3.5716906880166164
 40
0.1979679659138406
 50
113.7346003598295
 51
134.71837691096047
  0
ARC
  8
_0-2_00
  6
CONTINUOUS
 62
    3
 10
196.21050355383642
 20
3.6599447785859951
 40
0.0757299963796373
 50
136.19919749313718
 51
176.53173597376372
  0
LINE
  8
_0-2_00
  6
CONTINUOUS
 62
    3
 10
193.87741225996459
 20
-6.345707424494833
 11
193.877412259972
 21
2.1645261151620332
  0
ARC
  8
_0-2_00
  6
CONTINUOUS
 62
    3
 10
195.55991225997201
 20
2.1645261151605695
 40
2.3174999999999999
 50
89.99999999992815
 51
179.99999999992821
  0
ARC
  8
_0-2_00
  6
CONTINUOUS
 62
    3
 10
195.55991225997201
 20
2.1645261151605695
 40
1.6825000000000001
 50
89.99999999992815
 51
179.99999999992821
  0
LINE
  8
_0-2_00
  6
CONTINUOUS
 62
    3
 10
193.2424122599646
 20
-6.3457074244943925
 11
193.24241225997201
 21
2.1645261151625732
  0
LINE
  8
_0-2_00
  6
CONTINUOUS
 62
    3
 10
197.30991225998679
 20
5.6440590357784828
 11
215.30991225987611
 21
5.6440590357784828
  0
LINE
  8
_0-2_00
  6
CONTINUOUS
 62
    3
 10
196.70991225997321
 20
3.6067925754350654
 11
197.1755381120652
 21
3.6067925754350654
  0
LINE
  8
_0-2_00
  6
CONTINUOUS
 62
    3
 10
196.7099122599742
 20
4.7017925754350642
 11
197.1755381120652
 21
4.7017925754350642
  0
LINE
  8
_0-2_00
  6
CONTINUOUS
 62
    3
 10
197.5755381120652
 20
3.2792925754435913
 11
197.5755381120652
 21
5.0292925754435913
  0
LINE
  8
_0-2_00
  6
CONTINUOUS
 62
    3
 10
197.50053811206519
 20
3.2792925754435913
 11
197.5755381120652
 21
3.2792925754435913
  0
LINE
  8
_0-2_00
  6
CONTINUOUS
 62
    3
 10
197.50053811206519
 20
5.0292925754435913
 11
197.5755381120652
 21
5.0292925754435913
  0
LINE
  8
_0-2_00
  6
CONTINUOUS
 62
    3
 10
197.50053811206519
 20
3.2792925754435913
 11
197.50053811206519
 21
5.0292925754435913
  0
LINE
  8
_0-2_00
  6
CONTINUOUS
 62
    3
 10
197.1755381120652
 20
3.5792925754435885
 11
197.1755381120652
 21
4.7292925754435942
  0
LINE
  8
_0-2_00
  6
CONTINUOUS
 62
    3
 10
197.22553811206521
 20
3.5292925754435913
 11
197.50053811206519
 21
3.5292925754435913
  0
LINE
  8
_0-2_00
  6
CONTINUOUS
 62
    3
 10
197.22553811206521
 20
4.7792925754435913
 11
197.50053811206519
 21
4.7792925754435913
  0
LINE
  8
_0-2_00
  6
CONTINUOUS
 62
    3
 10
197.22553811206521
 20
3.9042925754435913
 11
197.50053811206519
 21
3.9042925754435913
  0
LINE
  8
_0-2_00
  6
CONTINUOUS
 62
    3
 10
197.22553811206521
 20
4.4042925754435913
 11
197.50053811206519
 21
4.4042925754435913
  0
LINE
  8
_0-2_00
  6
CONTINUOUS
 62
    3
 10
197.22553811206521
 20
3.7792925754435913
 11
197.50053811206519
 21
3.7792925754435913
  0
LINE
  8
_0-2_00
  6
CONTINUOUS
 62
    3
 10
197.22553811206521
 20
4.5292925754435913
 11
197.50053811206519
 21
4.5292925754435913
  0
ARC
  8
_0-2_00
  6
CONTINUOUS
 62
    3
 10
197.22553811206521
 20
4.7292925754435942
 40
0.05
 50
90
 51
180
  0
ARC
  8
_0-2_00
  6
CONTINUOUS
 62
    3
 10
197.22553811206521
 20
3.5792925754435885
 40
0.05
 50
180
 51
270
  0
ARC
  8
_0-2_00
  6
CONTINUOUS
 62
    3
 10
197.8255381120652
 20
4.1542925754435771
 40
0.649999999999984
 50
157.38013505195821
 51
202.61986494803989
  0
ARC
  8
_0-2_00
  6
CONTINUOUS
 62
    3
 10
197.60220401699459
 20
3.5788760992112572
 40
0.4266661081942845
 50
151.98344048306109
 51
180
  0
ARC
  8
_0-2_00
  6
CONTINUOUS
 62
    3
 10
197.59721098819949
 20
4.7369535434987853
 40
0.4257508714113559
 50
187.93652666041501
 51
209.19295373578731
  0
LINE
  8
_0-2_00
  6
CONTINUOUS
 62
    3
 10
197.22553811206521
 20
3.7792925754435913
 11
197.22553811206521
 21
3.9042925754435913
  0
LINE
  8
_0-2_00
  6
CONTINUOUS
 62
    3
 10
197.22553811206521
 20
4.4042925754435913
 11
197.22553811206521
 21
4.5292925754435913
  0
LINE
  8
_0-2_00
  6
CONTINUOUS
 62
    3
 10
197.5755381120652
 20
3.2792925753730913
 11
197.6120214043826
 21
3.2792925753731055
  0
LINE
  8
_0-2_00
  6
CONTINUOUS
 62
    3
 10
215.300172830279
 20
3.2440590358639128
 11
215.30017283027991
 21
5.0440590358639241
  0
LINE
  8
_0-2_00
  6
CONTINUOUS
 62
    3
 10
216.37517283027921
 20
3.2940590358625883
 11
216.37517283028001
 21
4.9463305631881269
  0
LINE
  8
_0-2_00
  6
CONTINUOUS
 62
    3
 10
216.40017283027919
 20
3.4940590358625343
 11
216.37517283027921
 21
3.4940590358625627
  0
LINE
  8
_0-2_00
  6
CONTINUOUS
 62
    3
 10
216.40017283027981
 20
4.7940590358625315
 11
216.37517283027981
 21
4.7940590358625599
  0
LINE
  8
_0-2_00
  6
CONTINUOUS
 62
    3
 10
216.50017283027921
 20
3.6190590358624206
 11
216.50017283027969
 21
4.6690590358624178
  0
ARC
  8
_0-2_00
  6
CONTINUOUS
 62
    3
 10
211.00017283027961
 20
4.1440590358650127
 40
5.5250000000000181
 50
354.54737801216038
 51
5.4526219877855286
  0
LINE
  8
_0-2_00
  6
CONTINUOUS
 62
    3
 10
216.40017283027919
 20
3.4940590358625343
 11
216.40017283027981
 21
4.7940590358625315
  0
LINE
  8
_0-2_00
  6
CONTINUOUS
 62
    3
 10
216.40017283027981
 20
4.7940590358625315
 11
216.50017283027981
 21
4.6690590358623894
  0
LINE
  8
_0-2_00
  6
CONTINUOUS
 62
    3
 10
216.4001728302791
 20
3.4940590358624917
 11
216.50017283027921
 21
3.6190590358623638
  0
LINE
  8
_0-2_00
  6
CONTINUOUS
 62
    3
 10
215.30017283027991
 20
5.0440590358639241
 11
216.32749590024761
 21
4.9962765674920462
  0
LINE
  8
_0-2_00
  6
CONTINUOUS
 62
    3
 10
215.30017283027911
 20
3.244059035863927
 11
216.3274959002467
 21
3.2918415042332185
  0
ARC
  8
_0-2_00
  6
CONTINUOUS
 62
    3
 10
216.32517283028
 20
4.9463305631881553
 40
0.05
 50
359.99999999992821
 51
87.336999233860965
  0
LINE
  8
_0-2_00
  6
CONTINUOUS
 62
    3
 10
215.30017283027959
 20
4.0940590358639497
 11
216.32517283027951
 21
3.9690590358626707
  0
LINE
  8
_0-2_00
  6
CONTINUOUS
 62
    3
 10
216.3251728302796
 20
4.3190590358626366
 11
215.30017283027951
 21
4.1940590358639156
  0
LINE
  8
_0-2_00
  6
CONTINUOUS
 62
    3
 10
216.3251728302798
 20
4.7940590358626451
 11
215.30017283027991
 21
4.8940590358639326
  0
LINE
  8
_0-2_00
  6
CONTINUOUS
 62
    3
 10
216.3400722563147
 20
4.9940590358626338
 11
215.3001728302801
 21
4.9690590358639497
  0
LINE
  8
_0-2_00
  6
CONTINUOUS
 62
    3
 10
216.3251728302792
 20
3.4940590358626338
 11
215.30017283027919
 21
3.3940590358639326
  0
LINE
  8
_0-2_00
  6
CONTINUOUS
 62
    3
 10
216.3274959002467
 20
3.2918415042331901
 11
215.30017283027911
 21
3.3440590358639071
  0
LINE
  8
_0-2_00
  6
CONTINUOUS
 62
    3
 10
215.2751728302799
 20
5.0440590358639525
 11
215.05017283027991
 21
5.0440590358642226
  0
ARC
  8
_0-2_00
  6
CONTINUOUS
 62
    3
 10
215.05017283027999
 20
5.0190590358642595
 40
0.025
 50
89.99999999992815
 51
106.6300310714559
  0
LINE
  8
_0-2_00
  6
CONTINUOUS
 62
    3
 10
215.27517283027899
 20
3.2440590358639554
 11
215.050172830279
 21
3.2440590358642254
  0
ARC
  8
_0-2_00
  6
CONTINUOUS
 62
    3
 10
215.05017283027919
 20
3.2690590358642453
 40
0.025
 50
179.99999999992821
 51
269.99999999992821
  0
ARC
  8
_0-2_00
  6
CONTINUOUS
 62
    3
 10
215.27517283027919
 20
3.2690590358639753
 40
0.025
 50
269.99999999992821
 51
359.99999999992821
  0
ARC
  8
_0-2_00
  6
CONTINUOUS
 62
    3
 10
215.27517283028001
 20
5.0190590358639753
 40
0.025
 50
359.99999999992821
 51
89.999999999928193
  0
LINE
  8
_0-2_00
  6
CONTINUOUS
 62
    3
 10
216.22815723016109
 20
1.6440590358613179
 11
215.447145391346
 21
1.6440590358629095
  0
LINE
  8
_0-2_00
  6
CONTINUOUS
 62
    3
 10
215.30017283027931
 20
3.2440590358639554
 11
215.39724276242211
 21
1.6909401215552151
  0
ARC
  8
_0-2_00
  6
CONTINUOUS
 62
    3
 10
215.44714539134611
 20
1.6940590358629066
 40
0.05
 50
183.57633437494263
 51
269.99999999992826
  0
LINE
  8
_0-2_00
  6
CONTINUOUS
 62
    3
 10
216.37517283027921
 20
3.2940590358625883
 11
216.32811134807579
 21
1.7410301231971488
  0
ARC
  8
_0-2_00
  6
CONTINUOUS
 62
    3
 10
216.22815723016129
 20
1.7440590358613122
 40
0.1
 50
269.99999999992821
 51
358.26429541102061
  0
LINE
  8
_0-2_00
  6
CONTINUOUS
 62
    3
 10
228.8099122599248
 20
-31.845707424514927
 11
228.80991225996021
 21
24.567319844588837
  0
LINE
  8
_0-2_00
  6
CONTINUOUS
 62
    3
 10
63.05530036528215
 20
91.452401083087011
 11
118.4667779959201
 21
91.452401083087011
  0
LINE
  8
_0-2_00
  6
CONTINUOUS
 62
    3
 10
98.680300365222053
 20
91.4524010830836
 11
107.4303003652221
 21
91.452401083090393
  0
LINE
  8
_0-2_00
  6
CONTINUOUS
 62
    3
 10
99.930300365221996
 20
91.002401083084607
 11
106.180300365222
 21
91.00240108308941
  0
LINE
  8
_0-2_00
  6
CONTINUOUS
 62
    3
 10
106.23030036522201
 20
86.752401083089609
 11
106.23030036522201
 21
90.952401083089399
  0
LINE
  8
_0-2_00
  6
CONTINUOUS
 62
    3
 10
99.880300365222013
 20
86.752401083084408
 11
99.880300365222013
 21
90.95240108308451
  0
LINE
  8
_0-2_00
  6
CONTINUOUS
 62
    3
 10
100.005300365222
 20
90.827401083084595
 11
106.10530036522201
 21
90.827401083089399
  0
LINE
  8
_0-2_00
  6
CONTINUOUS
 62
    3
 10
100.0803003652221
 20
85.827401083084709
 11
106.0303003652221
 21
85.827401083089313
  0
LINE
  8
_0-2_00
  6
CONTINUOUS
 62
    3
 10
99.930300365221996
 20
85.977401083084601
 11
99.930300365221996
 21
90.752401083084607
  0
LINE
  8
_0-2_00
  6
CONTINUOUS
 62
    3
 10
106.180300365222
 20
85.977401083089291
 11
106.180300365222
 21
90.75240108308941
  0
LINE
  8
_0-2_00
  6
CONTINUOUS
 62
    3
 10
98.680300365222053
 20
91.452401083083487
 11
98.772303662484603
 21
86.944239517218904
  0
LINE
  8
_0-2_00
  6
CONTINUOUS
 62
    3
 10
107.4303003652221
 20
91.452401083090393
 11
107.3382970679595
 21
86.944239517224986
  0
LINE
  8
_0-2_00
  6
CONTINUOUS
 62
    3
 10
99.880300365222013
 20
90.38990108308451
 11
99.930300365222024
 21
90.38990108308451
  0
LINE
  8
_0-2_00
  6
CONTINUOUS
 62
    3
 10
99.880300365222013
 20
90.614901083084504
 11
99.930300365222024
 21
90.614901083084504
  0
LINE
  8
_0-2_00
  6
CONTINUOUS
 62
    3
 10
106.1803003652221
 20
90.614901083089507
 11
106.23030036522201
 21
90.614901083089507
  0
LINE
  8
_0-2_00
  6
CONTINUOUS
 62
    3
 10
106.18030036522219
 20
90.389901083089512
 11
106.23030036522221
 21
90.389901083089512
  0
LINE
  8
_0-2_00
  6
CONTINUOUS
 62
    3
 10
99.172220389870262
 20
86.552401083083907
 11
99.680300365222166
 21
86.552401083084305
  0
LINE
  8
_0-2_00
  6
CONTINUOUS
 62
    3
 10
106.43030036522219
 20
86.552401083089705
 11
106.9383803405744
 21
86.552401083090103
  0
ARC
  8
_0-2_00
  6
CONTINUOUS
 62
    3
 10
106.9383803405741
 20
86.952401083090109
 40
0.4
 50
270
 51
358.83086067209229
  0
ARC
  8
_0-2_00
  6
CONTINUOUS
 62
    3
 10
99.172220389869921
 20
86.952401083083998
 40
0.4
 50
181.16913932790729
 51
270
  0
ARC
  8
_0-2_00
  6
CONTINUOUS
 62
    3
 10
106.430300365222
 20
86.752401083089694
 40
0.2
 50
180
 51
270
  0
ARC
  8
_0-2_00
  6
CONTINUOUS
 62
    3
 10
99.680300365221996
 20
86.752401083084408
 40
0.2
 50
270
 51
0
  0
ARC
  8
_0-2_00
  6
CONTINUOUS
 62
    3
 10
99.930300365221996
 20
90.952401083084595
 40
0.05
 50
90
 51
180
  0
ARC
  8
_0-2_00
  6
CONTINUOUS
 62
    3
 10
106.180300365222
 20
90.952401083089512
 40
0.05
 50
0
 51
90
  0
ARC
  8
_0-2_00
  6
CONTINUOUS
 62
    3
 10
106.030300365222
 20
85.977401083089404
 40
0.1499999999999999
 50
270
 51
0
  0
ARC
  8
_0-2_00
  6
CONTINUOUS
 62
    3
 10
100.080300365222
 20
85.977401083084686
 40
0.1499999999999999
 50
180
 51
270
  0
ARC
  8
_0-2_00
  6
CONTINUOUS
 62
    3
 10
100.005300365222
 20
90.752401083084607
 40
0.0749999999999999
 50
90
 51
180
  0
ARC
  8
_0-2_00
  6
CONTINUOUS
 62
    3
 10
106.10530036522201
 20
90.75240108308941
 40
0.0749999999999999
 50
0
 51
90
  0
LINE
  8
_0-2_00
  6
CONTINUOUS
 62
    3
 10
100.2053003642618
 20
85.327401083084709
 11
105.90530036426171
 21
85.3274010830892
  0
LINE
  8
_0-2_00
  6
CONTINUOUS
 62
    3
 10
105.90530036426171
 20
85.327401083089313
 11
105.9053003642547
 21
85.827401083089313
  0
LINE
  8
_0-2_00
  6
CONTINUOUS
 62
    3
 10
100.2053003642618
 20
85.327401083084709
 11
100.2053003642546
 21
85.827401083084794
  0
LINE
  8
_0-2_00
  6
CONTINUOUS
 62
    3
 10
107.4303003652649
 20
1.9042925756617564
 11
107.4303003652649
 21
5.3542925756617592
  0
LINE
  8
_0-2_00
  6
CONTINUOUS
 62
    3
 10
98.680300365264884
 20
1.9042925756617564
 11
98.680300365264884
 21
5.3542925756617592
  0
LINE
  8
_0-2_00
  6
CONTINUOUS
 62
    3
 10
106.2303003652649
 20
1.7042925756617535
 11
106.2303003652649
 21
5.7542925756617507
  0
LINE
  8
_0-2_00
  6
CONTINUOUS
 62
    3
 10
99.880300365264901
 20
1.7042925756617535
 11
99.880300365264901
 21
5.7542925756617507
  0
LINE
  8
_0-2_00
  6
CONTINUOUS
 62
    3
 10
98.780300365264878
 20
2.304292575661762
 11
98.780300365264878
 21
5.4407923872900312
  0
LINE
  8
_0-2_00
  6
CONTINUOUS
 62
    3
 10
107.3303003652649
 20
2.304292575661762
 11
107.3303003652649
 21
5.4001666080315118
  0
LINE
  8
_0-2_00
  6
CONTINUOUS
 62
    3
 10
99.930300365264884
 20
5.804292575661762
 11
106.1803003652649
 21
5.804292575661762
  0
LINE
  8
_0-2_00
  6
CONTINUOUS
 62
    3
 10
99.930300365264884
 20
4.3542925756617592
 11
106.1803003652649
 21
4.3542925756617592
  0
LINE
  8
_0-2_00
  6
CONTINUOUS
 62
    3
 10
99.930300365264884
 20
4.3542925756617592
 11
99.930300365264884
 21
5.804292575661762
  0
LINE
  8
_0-2_00
  6
CONTINUOUS
 62
    3
 10
106.1803003652649
 20
4.3542925756617592
 11
106.1803003652649
 21
5.804292575661762
  0
LINE
  8
_0-2_00
  6
CONTINUOUS
 62
    3
 10
99.08030036526489
 20
5.7542925756617507
 11
99.930300365264884
 21
5.7542925756617507
  0
LINE
  8
_0-2_00
  6
CONTINUOUS
 62
    3
 10
106.1803003652649
 20
5.7542925756617507
 11
107.03030036526491
 21
5.7542925756617507
  0
ARC
  8
_0-2_00
  6
CONTINUOUS
 62
    3
 10
107.03030036526491
 20
1.9042925756617564
 40
0.4
 50
270
 51
0
  0
ARC
  8
_0-2_00
  6
CONTINUOUS
 62
    3
 10
99.08030036526489
 20
1.9042925756617564
 40
0.4
 50
180
 51
270
  0
ARC
  8
_0-2_00
  6
CONTINUOUS
 62
    3
 10
107.1303003652649
 20
2.304292575661762
 40
0.2
 50
270
 51
0
  0
ARC
  8
_0-2_00
  6
CONTINUOUS
 62
    3
 10
98.980300365264895
 20
2.304292575661762
 40
0.2
 50
180
 51
270
  0
ARC
  8
_0-2_00
  6
CONTINUOUS
 62
    3
 10
106.4303003652649
 20
1.7042925756617535
 40
0.2
 50
180
 51
270
  0
ARC
  8
_0-2_00
  6
CONTINUOUS
 62
    3
 10
99.680300365264884
 20
1.7042925756617535
 40
0.2
 50
270
 51
0
  0
LINE
  8
_0-2_00
  6
CONTINUOUS
 62
    3
 10
98.980300365264895
 20
2.1042925756617592
 11
99.780300365264878
 21
2.1042925756617592
  0
LINE
  8
_0-2_00
  6
CONTINUOUS
 62
    3
 10
106.3303003652649
 20
2.1042925756617592
 11
107.1303003652649
 21
2.1042925756617592
  0
ARC
  8
_0-2_00
  6
CONTINUOUS
 62
    3
 10
106.3303003652649
 20
2.2042925756617535
 40
0.1
 50
180
 51
270
  0
ARC
  8
_0-2_00
  6
CONTINUOUS
 62
    3
 10
99.780300365264878
 20
2.2042925756617535
 40
0.1
 50
270
 51
0
  0
ARC
  8
_0-2_00
  6
CONTINUOUS
 62
    3
 10
99.08030036526489
 20
5.3542925756617592
 40
0.4
 50
90
 51
180
  0
ARC
  8
_0-2_00
  6
CONTINUOUS
 62
    3
 10
107.03030036526491
 20
5.3542925756617592
 40
0.4
 50
0
 51
90
  0
LINE
  8
_0-2_00
  6
CONTINUOUS
 62
    3
 10
100.20530036441529
 20
0.1591674650744039
 11
105.9053003644153
 21
0.1591674650744039
  0
LINE
  8
_0-2_00
  6
CONTINUOUS
 62
    3
 10
105.9053003644153
 20
0.1591674650744181
 11
105.9053003643557
 21
4.3542925756617592
  0
LINE
  8
_0-2_00
  6
CONTINUOUS
 62
    3
 10
100.20530036441529
 20
0.1591674650743755
 11
100.20530036435569
 21
4.354292575661745
  0
LINE
  8
_0-2_00
  6
CONTINUOUS
 62
    3
 10
99.08030036526489
 20
1.5042925756617649
 11
100.20530036439619
 21
1.5042925756617649
  0
LINE
  8
_0-2_00
  6
CONTINUOUS
 62
    3
 10
105.9053003643962
 20
1.5042925756617649
 11
107.03030036526491
 21
1.5042925756617649
  0
LINE
  8
_0-2_00
  6
CONTINUOUS
 62
    3
 10
224.38694522137939
 20
5.8292925755538079
 11
227.93491225995379
 21
5.8292925755462193
  0
LINE
  8
_0-2_00
  6
CONTINUOUS
 62
    3
 10
224.40991225995339
 20
5.7792925755537681
 11
228.8099122599539
 21
5.7792925755443463
  0
LINE
  8
_0-2_00
  6
CONTINUOUS
 62
    3
 10
228.80991225994009
 20
1.5292925755443605
 11
228.8099122599539
 21
5.7792925755443463
  0
LINE
  8
_0-2_00
  6
CONTINUOUS
 62
    3
 10
223.9099122599435
 20
2.5718025774818045
 11
223.90991225995231
 21
5.2792925755554165
  0
LINE
  8
_0-2_00
  6
CONTINUOUS
 62
    3
 10
223.30991225994941
 20
4.3792925755561356
 11
223.30991225995149
 21
5.0292925755585003
  0
LINE
  8
_0-2_00
  6
CONTINUOUS
 62
    3
 10
224.3491416647162
 20
2.0755093831325553
 11
228.80991225994021
 21
1.5292925755443463
  0
ARC
  8
_0-2_00
  6
CONTINUOUS
 62
    3
 10
224.4099122599435
 20
2.5718025774801418
 40
0.5
 50
179.99999999987742
 51
263.0189425930464
  0
ARC
  8
_0-2_00
  6
CONTINUOUS
 62
    3
 10
224.386945221377
 20
4.7042925755538079
 40
1.125
 50
89.99999999987736
 51
163.20855288516219
  0
ARC
  8
_0-2_00
  6
CONTINUOUS
 62
    3
 10
224.386945221377
 20
4.7042925755538079
 40
0.9749999999999999
 50
110.8639895134654
 51
166.86501224785189
  0
LINE
  8
_0-2_00
  6
CONTINUOUS
 62
    3
 10
223.4374537751581
 20
4.9258574499290546
 11
223.3099122599495
 21
4.3792925755561214
  0
ARC
  8
_0-2_00
  6
CONTINUOUS
 62
    3
 10
224.40991225995231
 20
5.2792925755537681
 40
0.5
 50
89.99999999987736
 51
179.9999999998773
  0
ARC
  8
_0-2_00
  6
CONTINUOUS
 62
    3
 10
227.93491225995331
 20
5.5792925755462193
 40
0.25
 50
53.130102354032218
 51
89.99999999987736
  0
ARC
  8
_0-2_00
  6
CONTINUOUS
 62
    3
 10
225.43491225994421
 20
2.8091674649642187
 40
2.625
 50
125.5175559552395
 51
333.89034659535332
  0
LINE
  8
_0-2_00
  6
CONTINUOUS
 62
    3
 10
66.305300365258518
 20
-39.168181108417713
 11
66.305300365265026
 21
-31.845707424532065
  0
LINE
  8
_0-2_00
  6
CONTINUOUS
 62
    3
 10
68.205300365258523
 20
-39.16818110841939
 11
68.205300365265032
 21
-31.845707424531184
  0
LINE
  8
_0-2_00
  6
CONTINUOUS
 62
    3
 10
66.305300365258518
 20
-39.168181108417713
 11
66.321096705337609
 21
-39.200088917609349
  0
LINE
  8
_0-2_00
  6
CONTINUOUS
 62
    3
 10
66.321096705337609
 20
-39.200088917609349
 11
66.337196759019491
 21
-39.231603579820558
  0
LINE
  8
_0-2_00
  6
CONTINUOUS
 62
    3
 10
66.337196759019491
 20
-39.231603579820558
 11
66.353904239906925
 21
-39.262331948070837
  0
LINE
  8
_0-2_00
  6
CONTINUOUS
 62
    3
 10
66.353904239906925
 20
-39.262331948070837
 11
66.371522861602699
 21
-39.291880875379775
  0
LINE
  8
_0-2_00
  6
CONTINUOUS
 62
    3
 10
66.371522861602699
 20
-39.291880875379775
 11
66.390356337709605
 21
-39.31985721476687
  0
LINE
  8
_0-2_00
  6
CONTINUOUS
 62
    3
 10
66.390356337709605
 20
-39.31985721476687
 11
66.410708381830418
 21
-39.345867819251723
  0
LINE
  8
_0-2_00
  6
CONTINUOUS
 62
    3
 10
66.410708381830418
 20
-39.345867819251723
 11
66.432882707567927
 21
-39.369519541853833
  0
LINE
  8
_0-2_00
  6
CONTINUOUS
 62
    3
 10
66.432882707567927
 20
-39.369519541853833
 11
66.457183028525037
 21
-39.390419235592688
  0
LINE
  8
_0-2_00
  6
CONTINUOUS
 62
    3
 10
66.457183028525037
 20
-39.390419235592688
 11
66.481300961930117
 21
-39.406786227315934
  0
LINE
  8
_0-2_00
  6
CONTINUOUS
 62
    3
 10
66.481300961930117
 20
-39.406786227315934
 11
66.507223934380619
 21
-39.420783007766559
  0
LINE
  8
_0-2_00
  6
CONTINUOUS
 62
    3
 10
66.507223934380619
 20
-39.420783007766559
 11
66.534749263581574
 21
-39.432638293001347
  0
LINE
  8
_0-2_00
  6
CONTINUOUS
 62
    3
 10
66.534749263581574
 20
-39.432638293001347
 11
66.563674267238028
 21
-39.442580799077035
  0
LINE
  8
_0-2_00
  6
CONTINUOUS
 62
    3
 10
66.563674267238028
 20
-39.442580799077035
 11
66.593796263055026
 21
-39.450839242050407
  0
LINE
  8
_0-2_00
  6
CONTINUOUS
 62
    3
 10
66.593796263055026
 20
-39.450839242050407
 11
66.624912568737585
 21
-39.4576423379782
  0
LINE
  8
_0-2_00
  6
CONTINUOUS
 62
    3
 10
66.624912568737585
 20
-39.4576423379782
 11
66.656820501990751
 21
-39.463218802917169
  0
LINE
  8
_0-2_00
  6
CONTINUOUS
 62
    3
 10
66.656820501990751
 20
-39.463218802917169
 11
66.689317380519327
 21
-39.467797352924208
  0
LINE
  8
_0-2_00
  6
CONTINUOUS
 62
    3
 10
66.689317380519327
 20
-39.467797352924208
 11
66.741049076434365
 21
-39.473269752119791
  0
LINE
  8
_0-2_00
  6
CONTINUOUS
 62
    3
 10
66.741049076434365
 20
-39.473269752119791
 11
66.793002423949346
 21
-39.476219983925716
  0
LINE
  8
_0-2_00
  6
CONTINUOUS
 62
    3
 10
66.793002423949346
 20
-39.476219983925716
 11
66.844446937094631
 21
-39.47602195483023
  0
LINE
  8
_0-2_00
  6
CONTINUOUS
 62
    3
 10
66.844446937094631
 20
-39.47602195483023
 11
66.894652129900606
 21
-39.472049571321577
  0
LINE
  8
_0-2_00
  6
CONTINUOUS
 62
    3
 10
66.894652129900606
 20
-39.472049571321577
 11
66.942887516397647
 21
-39.463676739887973
  0
LINE
  8
_0-2_00
  6
CONTINUOUS
 62
    3
 10
66.942887516397647
 20
-39.463676739887973
 11
66.988422610616126
 21
-39.450277367017662
  0
LINE
  8
_0-2_00
  6
CONTINUOUS
 62
    3
 10
66.988422610616126
 20
-39.450277367017662
 11
67.030526926586433
 21
-39.431225359198862
  0
LINE
  8
_0-2_00
  6
CONTINUOUS
 62
    3
 10
67.030526926586433
 20
-39.431225359198862
 11
67.068469978339067
 21
-39.405894622920215
  0
LINE
  8
_0-2_00
  6
CONTINUOUS
 62
    3
 10
67.068469978339067
 20
-39.405894622920215
 11
67.095103638504327
 21
-39.381341547090557
  0
LINE
  8
_0-2_00
  6
CONTINUOUS
 62
    3
 10
67.095103638504327
 20
-39.381341547090557
 11
67.119405032565751
 21
-39.35344580203504
  0
LINE
  8
_0-2_00
  6
CONTINUOUS
 62
    3
 10
67.119405032565751
 20
-39.35344580203504
 11
67.142071741889524
 21
-39.323141420440436
  0
LINE
  8
_0-2_00
  6
CONTINUOUS
 62
    3
 10
67.142071741889524
 20
-39.323141420440436
 11
67.163801347841769
 21
-39.291362434993516
  0
LINE
  8
_0-2_00
  6
CONTINUOUS
 62
    3
 10
67.163801347841769
 20
-39.291362434993516
 11
67.185291431788656
 21
-39.259042878381024
  0
LINE
  8
_0-2_00
  6
CONTINUOUS
 62
    3
 10
67.185291431788656
 20
-39.259042878381024
 11
67.207239575096324
 21
-39.227116783289759
  0
LINE
  8
_0-2_00
  6
CONTINUOUS
 62
    3
 10
67.207239575096324
 20
-39.227116783289759
 11
67.230343359130956
 21
-39.196518182406464
  0
LINE
  8
_0-2_00
  6
CONTINUOUS
 62
    3
 10
67.230343359130956
 20
-39.196518182406464
 11
67.255300365258265
 21
-39.168181108417173
  0
LINE
  8
_0-2_00
  6
CONTINUOUS
 62
    3
 10
67.255300365258265
 20
-39.168181108417173
 11
67.292193810282697
 21
-39.135132755040416
  0
LINE
  8
_0-2_00
  6
CONTINUOUS
 62
    3
 10
67.292193810282697
 20
-39.135132755040416
 11
67.33299060835067
 21
-39.107133121657085
  0
LINE
  8
_0-2_00
  6
CONTINUOUS
 62
    3
 10
67.33299060835067
 20
-39.107133121657085
 11
67.377080950024435
 21
-39.083576992220387
  0
LINE
  8
_0-2_00
  6
CONTINUOUS
 62
    3
 10
67.377080950024435
 20
-39.083576992220387
 11
67.423855025866303
 21
-39.063859150683541
  0
LINE
  8
_0-2_00
  6
CONTINUOUS
 62
    3
 10
67.423855025866303
 20
-39.063859150683541
 11
67.472703026438538
 21
-39.047374380999727
  0
LINE
  8
_0-2_00
  6
CONTINUOUS
 62
    3
 10
67.472703026438538
 20
-39.047374380999727
 11
67.523015142303436
 21
-39.033517467122181
  0
LINE
  8
_0-2_00
  6
CONTINUOUS
 62
    3
 10
67.523015142303436
 20
-39.033517467122181
 11
67.574181564023277
 21
-39.021683193004094
  0
LINE
  8
_0-2_00
  6
CONTINUOUS
 62
    3
 10
67.574181564023277
 20
-39.021683193004094
 11
67.625592482165558
 21
-39.011266342597992
  0
LINE
  8
_0-2_00
  6
CONTINUOUS
 62
    3
 10
67.625592482165558
 20
-39.011266342597992
 11
67.656281687517833
 21
-39.005503037334364
  0
LINE
  8
_0-2_00
  6
CONTINUOUS
 62
    3
 10
67.656281687517833
 20
-39.005503037334364
 11
67.686816282651748
 21
-39.000206705537593
  0
LINE
  8
_0-2_00
  6
CONTINUOUS
 62
    3
 10
67.686816282651748
 20
-39.000206705537593
 11
67.717172835141028
 21
-38.99555267049422
  0
LINE
  8
_0-2_00
  6
CONTINUOUS
 62
    3
 10
67.717172835141028
 20
-38.99555267049422
 11
67.747327912559385
 21
-38.9917162554908
  0
LINE
  8
_0-2_00
  6
CONTINUOUS
 62
    3
 10
67.747327912559385
 20
-38.9917162554908
 11
67.777258082480529
 21
-38.988872783813861
  0
LINE
  8
_0-2_00
  6
CONTINUOUS
 62
    3
 10
67.777258082480529
 20
-38.988872783813861
 11
67.806939912478171
 21
-38.987197578749957
  0
LINE
  8
_0-2_00
  6
CONTINUOUS
 62
    3
 10
67.806939912478171
 20
-38.987197578749957
 11
67.836349970126022
 21
-38.986865963585643
  0
LINE
  8
_0-2_00
  6
CONTINUOUS
 62
    3
 10
67.836349970126022
 20
-38.986865963585643
 11
67.865464822963432
 21
-38.988053261617921
  0
LINE
  8
_0-2_00
  6
CONTINUOUS
 62
    3
 10
67.865464822963432
 20
-38.988053261617921
 11
67.885473872705674
 21
-38.989853039610409
  0
LINE
  8
_0-2_00
  6
CONTINUOUS
 62
    3
 10
67.885473872705674
 20
-38.989853039610409
 11
67.905409698948759
 21
-38.992484614261087
  0
LINE
  8
_0-2_00
  6
CONTINUOUS
 62
    3
 10
67.905409698948759
 20
-38.992484614261087
 11
67.925352155056316
 21
-38.995965852146682
  0
LINE
  8
_0-2_00
  6
CONTINUOUS
 62
    3
 10
67.925352155056316
 20
-38.995965852146682
 11
67.945381094391976
 21
-39.000314619843948
  0
LINE
  8
_0-2_00
  6
CONTINUOUS
 62
    3
 10
67.945381094391976
 20
-39.000314619843948
 11
67.965576370319368
 21
-39.00554878392964
  0
LINE
  8
_0-2_00
  6
CONTINUOUS
 62
    3
 10
67.965576370319368
 20
-39.00554878392964
 11
67.986017836202137
 21
-39.011686210980486
  0
LINE
  8
_0-2_00
  6
CONTINUOUS
 62
    3
 10
67.986017836202137
 20
-39.011686210980486
 11
68.006785345403912
 21
-39.01874476757321
  0
LINE
  8
_0-2_00
  6
CONTINUOUS
 62
    3
 10
68.006785345403912
 20
-39.01874476757321
 11
68.02795875131963
 21
-39.026742320282423
  0
LINE
  8
_0-2_00
  6
CONTINUOUS
 62
    3
 10
68.02795875131963
 20
-39.026742320282423
 11
68.057308337776732
 21
-39.039117233767612
  0
LINE
  8
_0-2_00
  6
CONTINUOUS
 62
    3
 10
68.057308337776732
 20
-39.039117233767612
 11
68.086571145608303
 21
-39.05317380385199
  0
LINE
  8
_0-2_00
  6
CONTINUOUS
 62
    3
 10
68.086571145608303
 20
-39.05317380385199
 11
68.114764580596443
 21
-39.068829050097804
  0
LINE
  8
_0-2_00
  6
CONTINUOUS
 62
    3
 10
68.114764580596443
 20
-39.068829050097804
 11
68.140906048523206
 21
-39.085999992067315
  0
LINE
  8
_0-2_00
  6
CONTINUOUS
 62
    3
 10
68.140906048523206
 20
-39.085999992067315
 11
68.16401295517062
 21
-39.104603649322783
  0
LINE
  8
_0-2_00
  6
CONTINUOUS
 62
    3
 10
68.16401295517062
 20
-39.104603649322783
 11
68.183102706320739
 21
-39.124557041426471
  0
LINE
  8
_0-2_00
  6
CONTINUOUS
 62
    3
 10
68.183102706320739
 20
-39.124557041426471
 11
68.197192707755647
 21
-39.145777187940581
  0
LINE
  8
_0-2_00
  6
CONTINUOUS
 62
    3
 10
68.197192707755647
 20
-39.145777187940581
 11
68.205300365260797
 21
-39.168181108409598
  0
LINE
  8
_0-2_00
  6
CONTINUOUS
 62
    3
 10
68.205300365260797
 20
-39.168181108409598
 11
68.206292453358841
 21
-39.196059865912019
  0
LINE
  8
_0-2_00
  6
CONTINUOUS
 62
    3
 10
68.206292453358841
 20
-39.196059865912019
 11
68.198746766723218
 21
-39.224866969814968
  0
LINE
  8
_0-2_00
  6
CONTINUOUS
 62
    3
 10
68.198746766723218
 20
-39.224866969814968
 11
68.183900002788235
 21
-39.253985932159111
  0
LINE
  8
_0-2_00
  6
CONTINUOUS
 62
    3
 10
68.183900002788235
 20
-39.253985932159111
 11
68.162988858988129
 21
-39.282800264985099
  0
LINE
  8
_0-2_00
  6
CONTINUOUS
 62
    3
 10
68.162988858988129
 20
-39.282800264985099
 11
68.137250032757251
 21
-39.310693480333597
  0
LINE
  8
_0-2_00
  6
CONTINUOUS
 62
    3
 10
68.137250032757251
 20
-39.310693480333597
 11
68.107920221529938
 21
-39.337049090245245
  0
LINE
  8
_0-2_00
  6
CONTINUOUS
 62
    3
 10
68.107920221529938
 20
-39.337049090245245
 11
68.076236122740468
 21
-39.361250606760692
  0
LINE
  8
_0-2_00
  6
CONTINUOUS
 62
    3
 10
68.076236122740468
 20
-39.361250606760692
 11
68.043434433827358
 21
-39.38268154192329
  0
LINE
  8
_0-2_00
  6
CONTINUOUS
 62
    3
 10
68.043434433827358
 20
-39.38268154192329
 11
67.996432447817483
 21
-39.40769474402947
  0
LINE
  8
_0-2_00
  6
CONTINUOUS
 62
    3
 10
67.996432447817483
 20
-39.40769474402947
 11
67.949555408533939
 21
-39.426447551681576
  0
LINE
  8
_0-2_00
  6
CONTINUOUS
 62
    3
 10
67.949555408533939
 20
-39.426447551681576
 11
67.902684824668668
 21
-39.439602248141966
  0
LINE
  8
_0-2_00
  6
CONTINUOUS
 62
    3
 10
67.902684824668668
 20
-39.439602248141966
 11
67.855702204913669
 21
-39.447821116673055
  0
LINE
  8
_0-2_00
  6
CONTINUOUS
 62
    3
 10
67.855702204913669
 20
-39.447821116673055
 11
67.808489057960898
 21
-39.451766440537256
  0
LINE
  8
_0-2_00
  6
CONTINUOUS
 62
    3
 10
67.808489057960898
 20
-39.451766440537256
 11
67.760926892502312
 21
-39.45210050299697
  0
LINE
  8
_0-2_00
  6
CONTINUOUS
 62
    3
 10
67.760926892502312
 20
-39.45210050299697
 11
67.712897217229909
 21
-39.44948558731457
  0
LINE
  8
_0-2_00
  6
CONTINUOUS
 62
    3
 10
67.712897217229909
 20
-39.44948558731457
 11
67.664281540863584
 21
-39.444583976727529
  0
LINE
  8
_0-2_00
  6
CONTINUOUS
 62
    3
 10
67.664281540863584
 20
-39.444583976727529
 11
67.628927657664889
 21
-39.439923051179321
  0
LINE
  8
_0-2_00
  6
CONTINUOUS
 62
    3
 10
67.628927657664889
 20
-39.439923051179321
 11
67.593565532501813
 21
-39.434131716508205
  0
LINE
  8
_0-2_00
  6
CONTINUOUS
 62
    3
 10
67.593565532501813
 20
-39.434131716508205
 11
67.558551887138151
 21
-39.42692109331513
  0
LINE
  8
_0-2_00
  6
CONTINUOUS
 62
    3
 10
67.558551887138151
 20
-39.42692109331513
 11
67.524243443337724
 21
-39.418002302201032
  0
LINE
  8
_0-2_00
  6
CONTINUOUS
 62
    3
 10
67.524243443337724
 20
-39.418002302201032
 11
67.490996922864412
 21
-39.407086463766888
  0
LINE
  8
_0-2_00
  6
CONTINUOUS
 62
    3
 10
67.490996922864412
 20
-39.407086463766888
 11
67.459169047481964
 21
-39.393884698613647
  0
LINE
  8
_0-2_00
  6
CONTINUOUS
 62
    3
 10
67.459169047481964
 20
-39.393884698613647
 11
67.429116538954247
 21
-39.378108127342273
  0
LINE
  8
_0-2_00
  6
CONTINUOUS
 62
    3
 10
67.429116538954247
 20
-39.378108127342273
 11
67.401196119041771
 21
-39.35946787064708
  0
LINE
  8
_0-2_00
  6
CONTINUOUS
 62
    3
 10
67.401196119041771
 20
-39.35946787064708
 11
67.378838051313451
 21
-39.340777202322371
  0
LINE
  8
_0-2_00
  6
CONTINUOUS
 62
    3
 10
67.378838051313451
 20
-39.340777202322371
 11
67.358128422989395
 21
-39.319998463219278
  0
LINE
  8
_0-2_00
  6
CONTINUOUS
 62
    3
 10
67.358128422989395
 20
-39.319998463219278
 11
67.338831742726143
 21
-39.297429949163231
  0
LINE
  8
_0-2_00
  6
CONTINUOUS
 62
    3
 10
67.338831742726143
 20
-39.297429949163231
 11
67.320712519180233
 21
-39.273369955979732
  0
LINE
  8
_0-2_00
  6
CONTINUOUS
 62
    3
 10
67.320712519180233
 20
-39.273369955979732
 11
67.303535261008221
 21
-39.248116779494268
  0
LINE
  8
_0-2_00
  6
CONTINUOUS
 62
    3
 10
67.303535261008221
 20
-39.248116779494268
 11
67.287064476866561
 21
-39.22196871553237
  0
LINE
  8
_0-2_00
  6
CONTINUOUS
 62
    3
 10
67.287064476866561
 20
-39.22196871553237
 11
67.271064675411878
 21
-39.19522405991944
  0
LINE
  8
_0-2_00
  6
CONTINUOUS
 62
    3
 10
67.271064675411878
 20
-39.19522405991944
 11
67.25530036525852
 21
-39.168181108417272
  0
LINE
  8
_0-2_00
  6
CONTINUOUS
 62
    3
 10
79.276674099736027
 20
-47.734144405636457
 11
85.48813103431678
 21
-44.837694468758386
  0
LINE
  8
_0-2_00
  6
CONTINUOUS
 62
    3
 10
76.891130510084736
 20
-42.557287512267266
 11
83.079206942406302
 21
-39.671740082644092
  0
INSERT
  2
-000-_D0
  8
_0-2_00
 10
0
 20
-74.25
 41
1
 42
1
 50
0
  0
INSERT
  2
-001-_D1
  8
_0-2_00
 10
0
 20
-74.25
 41
1
 42
1
 50
0
  0
INSERT
  2
-002-_D2
  8
_0-2_00
 10
0
 20
-74.25
 41
1
 42
1
 50
0
  0
INSERT
  2
-003-_D3
  8
_0-2_00
 10
0
 20
-74.25
 41
1
 42
1
 50
0
  0
INSERT
  2
-004-_D4
  8
_0-2_00
 10
0
 20
-74.25
 41
1
 42
1
 50
0
  0
INSERT
  2
-005-_D5
  8
_0-2_00
 10
0
 20
-74.25
 41
1
 42
1
 50
0
  0
INSERT
  2
-006-_D6
  8
_0-2_00
 10
0
 20
-74.25
 41
1
 42
1
 50
0
  0
INSERT
  2
-007-_D7
  8
_0-2_00
 10
0
 20
-74.25
 41
1
 42
1
 50
0
  0
INSERT
  2
-008-_D8
  8
_0-2_00
 10
0
 20
-74.25
 41
1
 42
1
 50
0
  0
INSERT
  2
-009-_D9
  8
_0-2_00
 10
0
 20
-74.25
 41
1
 42
1
 50
0
  0
INSERT
  2
-010-_D10
  8
_0-2_00
 10
0
 20
-74.25
 41
1
 42
1
 50
0
  0
LINE
  8
_0-2_00
  6
CONTINUOUS
 62
    3
 10
86.86463855085384
 20
-40.845707424506116
 11
87.305300365298706
 21
-40.845707424506116
  0
INSERT
  2
-011-_D11
  8
_0-2_00
 10
0
 20
-74.25
 41
1
 42
1
 50
0
  0
LINE
  8
_0-2_00
  6
CONTINUOUS
 62
    3
 10
76.89113051008475
 20
-42.557287512267294
 11
76.837103235485642
 21
-42.668765960863794
  0
LINE
  8
_0-2_00
  6
CONTINUOUS
 62
    3
 10
76.837103235485642
 20
-42.668765960863794
 11
76.783985699627337
 21
-42.78068945535243
  0
LINE
  8
_0-2_00
  6
CONTINUOUS
 62
    3
 10
76.783985699627337
 20
-42.78068945535243
 11
76.732687641250578
 21
-42.893503041625351
  0
LINE
  8
_0-2_00
  6
CONTINUOUS
 62
    3
 10
76.732687641250578
 20
-42.893503041625351
 11
76.684118799096169
 21
-43.007651765574707
  0
LINE
  8
_0-2_00
  6
CONTINUOUS
 62
    3
 10
76.684118799096169
 20
-43.007651765574707
 11
76.639188911904895
 21
-43.123580673092604
  0
LINE
  8
_0-2_00
  6
CONTINUOUS
 62
    3
 10
76.639188911904895
 20
-43.123580673092604
 11
76.598807718417518
 21
-43.241734810071193
  0
LINE
  8
_0-2_00
  6
CONTINUOUS
 62
    3
 10
76.598807718417518
 20
-43.241734810071193
 11
76.563884957374853
 21
-43.362559222402638
  0
LINE
  8
_0-2_00
  6
CONTINUOUS
 62
    3
 10
76.563884957374853
 20
-43.362559222402638
 11
76.535330367517417
 21
-43.486498955979116
  0
LINE
  8
_0-2_00
  6
CONTINUOUS
 62
    3
 10
76.535330367517417
 20
-43.486498955979116
 11
76.520806283351888
 21
-43.568057479634092
  0
LINE
  8
_0-2_00
  6
CONTINUOUS
 62
    3
 10
76.520806283351888
 20
-43.568057479634092
 11
76.509971440328556
 21
-43.650456849443188
  0
LINE
  8
_0-2_00
  6
CONTINUOUS
 62
    3
 10
76.509971440328556
 20
-43.650456849443188
 11
76.503495907601902
 21
-43.733060926981835
  0
LINE
  8
_0-2_00
  6
CONTINUOUS
 62
    3
 10
76.503495907601902
 20
-43.733060926981835
 11
76.502049754326464
 21
-43.815233573825452
  0
LINE
  8
_0-2_00
  6
CONTINUOUS
 62
    3
 10
76.502049754326464
 20
-43.815233573825452
 11
76.506303049656751
 21
-43.896338651549456
  0
LINE
  8
_0-2_00
  6
CONTINUOUS
 62
    3
 10
76.506303049656751
 20
-43.896338651549456
 11
76.516925862747257
 21
-43.97574002172928
  0
LINE
  8
_0-2_00
  6
CONTINUOUS
 62
    3
 10
76.516925862747257
 20
-43.97574002172928
 11
76.534588262752507
 21
-44.052801545940355
  0
LINE
  8
_0-2_00
  6
CONTINUOUS
 62
    3
 10
76.534588262752507
 20
-44.052801545940355
 11
76.559960318827308
 21
-44.126887085758128
  0
LINE
  8
_0-2_00
  6
CONTINUOUS
 62
    3
 10
76.559960318827308
 20
-44.126887085758128
 11
76.597787882320333
 21
-44.205351635301398
  0
LINE
  8
_0-2_00
  6
CONTINUOUS
 62
    3
 10
76.597787882320333
 20
-44.205351635301398
 11
76.644816969769039
 21
-44.279509518398214
  0
LINE
  8
_0-2_00
  6
CONTINUOUS
 62
    3
 10
76.644816969769039
 20
-44.279509518398214
 11
76.699839426960409
 21
-44.349541212874271
  0
LINE
  8
_0-2_00
  6
CONTINUOUS
 62
    3
 10
76.699839426960409
 20
-44.349541212874271
 11
76.761647099681468
 21
-44.415627196555306
  0
LINE
  8
_0-2_00
  6
CONTINUOUS
 62
    3
 10
76.761647099681468
 20
-44.415627196555306
 11
76.829031833719213
 21
-44.477947947267012
  0
LINE
  8
_0-2_00
  6
CONTINUOUS
 62
    3
 10
76.829031833719213
 20
-44.477947947267012
 11
76.900785474860641
 21
-44.536683942835083
  0
LINE
  8
_0-2_00
  6
CONTINUOUS
 62
    3
 10
76.900785474860641
 20
-44.536683942835083
 11
76.975699868892761
 21
-44.59201566108527
  0
LINE
  8
_0-2_00
  6
CONTINUOUS
 62
    3
 10
76.975699868892761
 20
-44.59201566108527
 11
77.052566861602912
 21
-44.644123579843111
  0
LINE
  8
_0-2_00
  6
CONTINUOUS
 62
    3
 10
77.052566861602912
 20
-44.644123579843111
 11
77.178723146121641
 21
-44.722084871265153
  0
LINE
  8
_0-2_00
  6
CONTINUOUS
 62
    3
 10
77.178723146121641
 20
-44.722084871265153
 11
77.306579235770826
 21
-44.793222596416314
  0
LINE
  8
_0-2_00
  6
CONTINUOUS
 62
    3
 10
77.306579235770826
 20
-44.793222596416314
 11
77.435888360454641
 21
-44.858670874041081
  0
LINE
  8
_0-2_00
  6
CONTINUOUS
 62
    3
 10
77.435888360454641
 20
-44.858670874041081
 11
77.566403750077313
 21
-44.919563822883887
  0
LINE
  8
_0-2_00
  6
CONTINUOUS
 62
    3
 10
77.566403750077313
 20
-44.919563822883887
 11
77.697878634543017
 21
-44.977035561689178
  0
LINE
  8
_0-2_00
  6
CONTINUOUS
 62
    3
 10
77.697878634543017
 20
-44.977035561689178
 11
77.830066243755965
 21
-45.032220209201427
  0
LINE
  8
_0-2_00
  6
CONTINUOUS
 62
    3
 10
77.830066243755965
 20
-45.032220209201427
 11
77.96271980762036
 21
-45.086251884165051
  0
LINE
  8
_0-2_00
  6
CONTINUOUS
 62
    3
 10
77.96271980762036
 20
-45.086251884165051
 11
78.095592556038682
 21
-45.14026470532437
  0
LINE
  8
_0-2_00
  6
CONTINUOUS
 62
    3
 10
78.095592556038682
 20
-45.14026470532437
 11
78.192089578364218
 21
-45.180121715787024
  0
LINE
  8
_0-2_00
  6
CONTINUOUS
 62
    3
 10
78.192089578364218
 20
-45.180121715787024
 11
78.288374656938288
 21
-45.220931321469038
  0
LINE
  8
_0-2_00
  6
CONTINUOUS
 62
    3
 10
78.288374656938288
 20
-45.220931321469038
 11
78.384250403282579
 21
-45.263057657629915
  0
LINE
  8
_0-2_00
  6
CONTINUOUS
 62
    3
 10
78.384250403282579
 20
-45.263057657629915
 11
78.479519428918778
 21
-45.306864859529156
  0
LINE
  8
_0-2_00
  6
CONTINUOUS
 62
    3
 10
78.479519428918778
 20
-45.306864859529156
 11
78.573984345368601
 21
-45.352717062426265
  0
LINE
  8
_0-2_00
  6
CONTINUOUS
 62
    3
 10
78.573984345368601
 20
-45.352717062426265
 11
78.667447764153707
 21
-45.400978401580744
  0
LINE
  8
_0-2_00
  6
CONTINUOUS
 62
    3
 10
78.667447764153707
 20
-45.400978401580744
 11
78.759712296795826
 21
-45.45201301225211
  0
LINE
  8
_0-2_00
  6
CONTINUOUS
 62
    3
 10
78.759712296795826
 20
-45.45201301225211
 11
78.850580554816673
 21
-45.506185029704909
  0
LINE
  8
_0-2_00
  6
CONTINUOUS
 62
    3
 10
78.850580554816673
 20
-45.506185029704909
 11
78.906437779257843
 21
-45.541776356995612
  0
LINE
  8
_0-2_00
  6
CONTINUOUS
 62
    3
 10
78.906437779257843
 20
-45.541776356995612
 11
78.961252888542333
 21
-45.578992449647814
  0
LINE
  8
_0-2_00
  6
CONTINUOUS
 62
    3
 10
78.961252888542333
 20
-45.578992449647814
 11
79.014604583149108
 21
-45.618094038149479
  0
LINE
  8
_0-2_00
  6
CONTINUOUS
 62
    3
 10
79.014604583149108
 20
-45.618094038149479
 11
79.066071563557074
 21
-45.659341852988533
  0
LINE
  8
_0-2_00
  6
CONTINUOUS
 62
    3
 10
79.066071563557074
 20
-45.659341852988533
 11
79.11523253024518
 21
-45.702996624652911
  0
LINE
  8
_0-2_00
  6
CONTINUOUS
 62
    3
 10
79.11523253024518
 20
-45.702996624652911
 11
79.161666183692361
 21
-45.749319083630553
  0
LINE
  8
_0-2_00
  6
CONTINUOUS
 62
    3
 10
79.161666183692361
 20
-45.749319083630553
 11
79.204951224377552
 21
-45.798569960409438
  0
LINE
  8
_0-2_00
  6
CONTINUOUS
 62
    3
 10
79.204951224377552
 20
-45.798569960409438
 11
79.244666352764128
 21
-45.851009985482094
  0
LINE
  8
_0-2_00
  6
CONTINUOUS
 62
    3
 10
79.244666352764128
 20
-45.851009985482094
 11
79.2707094514858
 21
-45.890626651762972
  0
LINE
  8
_0-2_00
  6
CONTINUOUS
 62
    3
 10
79.2707094514858
 20
-45.890626651762972
 11
79.294665837371824
 21
-45.931755848911536
  0
LINE
  8
_0-2_00
  6
CONTINUOUS
 62
    3
 10
79.294665837371824
 20
-45.931755848911536
 11
79.316497381076204
 21
-45.974139376235485
  0
LINE
  8
_0-2_00
  6
CONTINUOUS
 62
    3
 10
79.316497381076204
 20
-45.974139376235485
 11
79.336165953252902
 21
-46.01751903304249
  0
LINE
  8
_0-2_00
  6
CONTINUOUS
 62
    3
 10
79.336165953252902
 20
-46.01751903304249
 11
79.353633424555895
 21
-46.061636618640335
  0
LINE
  8
_0-2_00
  6
CONTINUOUS
 62
    3
 10
79.353633424555895
 20
-46.061636618640335
 11
79.36886166563913
 21
-46.10623393233675
  0
LINE
  8
_0-2_00
  6
CONTINUOUS
 62
    3
 10
79.36886166563913
 20
-46.10623393233675
 11
79.381812547156613
 21
-46.151052773439403
  0
LINE
  8
_0-2_00
  6
CONTINUOUS
 62
    3
 10
79.381812547156613
 20
-46.151052773439403
 11
79.392447939760814
 21
-46.195834941243518
  0
LINE
  8
_0-2_00
  6
CONTINUOUS
 62
    3
 10
79.392447939760814
 20
-46.195834941243518
 11
79.402965410348898
 21
-46.254394329971959
  0
LINE
  8
_0-2_00
  6
CONTINUOUS
 62
    3
 10
79.402965410348898
 20
-46.254394329971959
 11
79.410062362224735
 21
-46.312901215101263
  0
LINE
  8
_0-2_00
  6
CONTINUOUS
 62
    3
 10
79.410062362224735
 20
-46.312901215101263
 11
79.414386379505132
 21
-46.371812766876474
  0
LINE
  8
_0-2_00
  6
CONTINUOUS
 62
    3
 10
79.414386379505132
 20
-46.371812766876474
 11
79.416585046307006
 21
-46.431586155542703
  0
LINE
  8
_0-2_00
  6
CONTINUOUS
 62
    3
 10
79.416585046307006
 20
-46.431586155542703
 11
79.417305946747234
 21
-46.492678551344937
  0
LINE
  8
_0-2_00
  6
CONTINUOUS
 62
    3
 10
79.417305946747234
 20
-46.492678551344937
 11
79.417196664942679
 21
-46.555547124528317
  0
LINE
  8
_0-2_00
  6
CONTINUOUS
 62
    3
 10
79.417196664942679
 20
-46.555547124528317
 11
79.41690478501026
 21
-46.620649045337913
  0
LINE
  8
_0-2_00
  6
CONTINUOUS
 62
    3
 10
79.41690478501026
 20
-46.620649045337913
 11
79.417077891089377
 21
-46.688441484020672
  0
LINE
  8
_0-2_00
  6
CONTINUOUS
 62
    3
 10
79.417077891089377
 20
-46.688441484020672
 11
79.42031095417866
 21
-46.840616077502091
  0
LINE
  8
_0-2_00
  6
CONTINUOUS
 62
    3
 10
79.42031095417866
 20
-46.840616077502091
 11
79.425149586299412
 21
-46.999971992176711
  0
LINE
  8
_0-2_00
  6
CONTINUOUS
 62
    3
 10
79.425149586299412
 20
-46.999971992176711
 11
79.428239435189198
 21
-47.159657918635659
  0
LINE
  8
_0-2_00
  6
CONTINUOUS
 62
    3
 10
79.428239435189198
 20
-47.159657918635659
 11
79.426226148585584
 21
-47.312822547470063
  0
LINE
  8
_0-2_00
  6
CONTINUOUS
 62
    3
 10
79.426226148585584
 20
-47.312822547470063
 11
79.415755374226109
 21
-47.452614569270978
  0
LINE
  8
_0-2_00
  6
CONTINUOUS
 62
    3
 10
79.415755374226109
 20
-47.452614569270978
 11
79.393472759848322
 21
-47.572182674629559
  0
LINE
  8
_0-2_00
  6
CONTINUOUS
 62
    3
 10
79.393472759848322
 20
-47.572182674629559
 11
79.356023953189833
 21
-47.664675554136878
  0
LINE
  8
_0-2_00
  6
CONTINUOUS
 62
    3
 10
79.356023953189833
 20
-47.664675554136878
 11
79.300054601988165
 21
-47.723241898381758
  0
LINE
  8
_0-2_00
  6
CONTINUOUS
 62
    3
 10
79.300054601988165
 20
-47.723241898381758
 11
79.223373927343232
 21
-47.743144039190696
  0
LINE
  8
_0-2_00
  6
CONTINUOUS
 62
    3
 10
79.223373927343232
 20
-47.743144039190696
 11
79.128488314240329
 21
-47.72809244638043
  0
LINE
  8
_0-2_00
  6
CONTINUOUS
 62
    3
 10
79.128488314240329
 20
-47.72809244638043
 11
79.019071583659951
 21
-47.683918431484756
  0
LINE
  8
_0-2_00
  6
CONTINUOUS
 62
    3
 10
79.019071583659951
 20
-47.683918431484756
 11
78.898797556582721
 21
-47.61645330603767
  0
LINE
  8
_0-2_00
  6
CONTINUOUS
 62
    3
 10
78.898797556582721
 20
-47.61645330603767
 11
78.771340053989221
 21
-47.531528381573139
  0
LINE
  8
_0-2_00
  6
CONTINUOUS
 62
    3
 10
78.771340053989221
 20
-47.531528381573139
 11
78.640372896860015
 21
-47.434974969625017
  0
LINE
  8
_0-2_00
  6
CONTINUOUS
 62
    3
 10
78.640372896860015
 20
-47.434974969625017
 11
78.509569906175656
 21
-47.332624381727186
  0
LINE
  8
_0-2_00
  6
CONTINUOUS
 62
    3
 10
78.509569906175656
 20
-47.332624381727186
 11
78.382604902935284
 21
-47.230307929409122
  0
LINE
  8
_0-2_00
  6
CONTINUOUS
 62
    3
 10
78.382604902935284
 20
-47.230307929409122
 11
78.277648048487251
 21
-47.144756424162225
  0
LINE
  8
_0-2_00
  6
CONTINUOUS
 62
    3
 10
78.277648048487251
 20
-47.144756424162225
 11
78.179458956915127
 21
-47.06211684493185
  0
LINE
  8
_0-2_00
  6
CONTINUOUS
 62
    3
 10
78.179458956915127
 20
-47.06211684493185
 11
78.089091721931538
 21
-46.980839712102679
  0
LINE
  8
_0-2_00
  6
CONTINUOUS
 62
    3
 10
78.089091721931538
 20
-46.980839712102679
 11
78.007600437248882
 21
-46.899375546059318
  0
LINE
  8
_0-2_00
  6
CONTINUOUS
 62
    3
 10
78.007600437248882
 20
-46.899375546059318
 11
77.936039196579827
 21
-46.816174867186461
  0
LINE
  8
_0-2_00
  6
CONTINUOUS
 62
    3
 10
77.936039196579827
 20
-46.816174867186461
 11
77.875462093636798
 21
-46.729688195868661
  0
LINE
  8
_0-2_00
  6
CONTINUOUS
 62
    3
 10
77.875462093636798
 20
-46.729688195868661
 11
77.826923222132393
 21
-46.638366052490582
  0
LINE
  8
_0-2_00
  6
CONTINUOUS
 62
    3
 10
77.826923222132393
 20
-46.638366052490582
 11
77.791476675818274
 21
-46.540658957427127
  0
LINE
  8
_0-2_00
  6
CONTINUOUS
 62
    3
 10
77.791476675818274
 20
-46.540658957427127
 11
77.774257444624538
 21
-46.464356069910224
  0
LINE
  8
_0-2_00
  6
CONTINUOUS
 62
    3
 10
77.774257444624538
 20
-46.464356069910224
 11
77.764033554333821
 21
-46.384563948326416
  0
LINE
  8
_0-2_00
  6
CONTINUOUS
 62
    3
 10
77.764033554333821
 20
-46.384563948326416
 11
77.760207045224291
 21
-46.302052282556957
  0
LINE
  8
_0-2_00
  6
CONTINUOUS
 62
    3
 10
77.760207045224291
 20
-46.302052282556957
 11
77.762179957574261
 21
-46.217590762482928
  0
LINE
  8
_0-2_00
  6
CONTINUOUS
 62
    3
 10
77.762179957574261
 20
-46.217590762482928
 11
77.769354331661987
 21
-46.131949077985695
  0
LINE
  8
_0-2_00
  6
CONTINUOUS
 62
    3
 10
77.769354331661987
 20
-46.131949077985695
 11
77.781132207765751
 21
-46.045896918946426
  0
LINE
  8
_0-2_00
  6
CONTINUOUS
 62
    3
 10
77.781132207765751
 20
-46.045896918946426
 11
77.796915626163752
 21
-45.960203975246202
  0
LINE
  8
_0-2_00
  6
CONTINUOUS
 62
    3
 10
77.796915626163752
 20
-45.960203975246202
 11
77.816106627092367
 21
-45.875639936760876
  0
LINE
  8
_0-2_00
  6
CONTINUOUS
 62
    3
 10
77.816106627092367
 20
-45.875639936760876
 11
77.842453311200643
 21
-45.777914000602507
  0
LINE
  8
_0-2_00
  6
CONTINUOUS
 62
    3
 10
77.842453311200643
 20
-45.777914000602507
 11
77.872235618113592
 21
-45.68250967733465
  0
LINE
  8
_0-2_00
  6
CONTINUOUS
 62
    3
 10
77.872235618113592
 20
-45.68250967733465
 11
77.904962744573382
 21
-45.589095307972897
  0
LINE
  8
_0-2_00
  6
CONTINUOUS
 62
    3
 10
77.904962744573382
 20
-45.589095307972897
 11
77.940143887322236
 21
-45.497339233532884
  0
LINE
  8
_0-2_00
  6
CONTINUOUS
 62
    3
 10
77.940143887322236
 20
-45.497339233532884
 11
77.977288243102279
 21
-45.406909795030288
  0
LINE
  8
_0-2_00
  6
CONTINUOUS
 62
    3
 10
77.977288243102279
 20
-45.406909795030288
 11
78.01590500865575
 21
-45.317475333480758
  0
LINE
  8
_0-2_00
  6
CONTINUOUS
 62
    3
 10
78.01590500865575
 20
-45.317475333480758
 11
78.055503380724886
 21
-45.228704189899929
  0
LINE
  8
_0-2_00
  6
CONTINUOUS
 62
    3
 10
78.055503380724886
 20
-45.228704189899929
 11
78.095592556039961
 21
-45.140264705324427
  0
INSERT
  2
-012-M0
  8
_0-2_00
 10
107.03030036526491
 20
5.7542925756617507
 41
1
 42
1
 50
0
  0
INSERT
  2
-013-M1
  8
_0-2_00
 10
90.343805316480342
 20
-38.409011679917654
 41
1
 42
1
 50
0
  0
INSERT
  2
-014-M2
  8
_0-2_00
 10
82.736367710413475
 20
-46.120862780117065
 41
1
 42
1
 50
0
  0
INSERT
  2
-015-M3
  8
_0-2_00
 10
66.305300365262099
 20
-35.14325655635146
 41
1
 42
1
 50
0
  0
INSERT
  2
-016-M4
  8
_0-2_00
 10
66.80530036527918
 20
-22.9057074245639
 41
1
 42
1
 50
0
  0
LINE
  8
_0-2_00
  6
CONTINUOUS
 62
    3
 10
210.4324122599248
 20
-31.845707424514785
 11
210.43241225992469
 21
-32.30751725071741
  0
LINE
  8
_0-2_00
  6
CONTINUOUS
 62
    3
 10
210.6874122599248
 20
-31.845707424515084
 11
210.68741225992471
 21
-32.307517250717481
  0
ARC
  8
_0-2_00
  6
CONTINUOUS
 62
    3
 10
212.93241225992469
 20
-32.307517250717979
 40
2.5
 50
180
 51
198.3774806571526
  0
ARC
  8
_0-2_00
  6
CONTINUOUS
 62
    3
 10
208.18741225992471
 20
-32.307517250716927
 40
2.5
 50
341.6225193428221
 51
0
  0
LINE
  8
_0-2_00
  6
CONTINUOUS
 62
    3
 10
210.43241225992489
 20
-31.845707424514814
 11
210.68741225992491
 21
-31.995707424515132
  0
LINE
  8
_0-2_00
  6
CONTINUOUS
 62
    3
 10
210.4324122599248
 20
-31.995707424514777
 11
210.6874122599248
 21
-32.145707424515081
  0
LINE
  8
_0-2_00
  6
CONTINUOUS
 62
    3
 10
210.4324122599248
 20
-32.145707424514796
 11
210.68741225992471
 21
-32.295707424515086
  0
LINE
  8
_0-2_00
  6
CONTINUOUS
 62
    3
 10
210.43241225992469
 20
-32.295707424514788
 11
210.68359003321439
 21
-32.445707424515078
  0
LINE
  8
_0-2_00
  6
CONTINUOUS
 62
    3
 10
210.4362344866349
 20
-32.445707424514751
 11
210.6707459917711
 21
-32.595707424515098
  0
LINE
  8
_0-2_00
  6
CONTINUOUS
 62
    3
 10
210.44907852807819
 20
-32.595707424514814
 11
210.6487105700827
 21
-32.745707424515047
  0
LINE
  8
_0-2_00
  6
CONTINUOUS
 62
    3
 10
210.47111394976639
 20
-32.745707424514819
 11
210.6172337182725
 21
-32.895707424515052
  0
LINE
  8
_0-2_00
  6
CONTINUOUS
 62
    3
 10
201.9324122599248
 20
-31.845707424500716
 11
201.93241225992469
 21
-32.307517250703341
  0
LINE
  8
_0-2_00
  6
CONTINUOUS
 62
    3
 10
202.1874122599248
 20
-31.845707424501029
 11
202.18741225992471
 21
-32.307517250703427
  0
ARC
  8
_0-2_00
  6
CONTINUOUS
 62
    3
 10
204.43241225992469
 20
-32.30751725070391
 40
2.5
 50
180
 51
198.3774806571526
  0
ARC
  8
_0-2_00
  6
CONTINUOUS
 62
    3
 10
199.68741225992471
 20
-32.307517250702858
 40
2.5
 50
341.6225193428221
 51
0
  0
LINE
  8
_0-2_00
  6
CONTINUOUS
 62
    3
 10
201.93241225992489
 20
-31.845707424500759
 11
202.1874122599248
 21
-31.995707424501063
  0
LINE
  8
_0-2_00
  6
CONTINUOUS
 62
    3
 10
201.9324122599248
 20
-31.995707424500694
 11
202.18741225992471
 21
-32.14570742450104
  0
LINE
  8
_0-2_00
  6
CONTINUOUS
 62
    3
 10
201.93241225992469
 20
-32.145707424500699
 11
202.18741225992471
 21
-32.295707424501003
  0
LINE
  8
_0-2_00
  6
CONTINUOUS
 62
    3
 10
201.9324122599248
 20
-32.295707424500762
 11
202.18359003321439
 21
-32.445707424501052
  0
LINE
  8
_0-2_00
  6
CONTINUOUS
 62
    3
 10
201.9362344866349
 20
-32.445707424500711
 11
202.17074599177101
 21
-32.595707424501029
  0
LINE
  8
_0-2_00
  6
CONTINUOUS
 62
    3
 10
201.94907852807819
 20
-32.595707424500759
 11
202.1487105700827
 21
-32.745707424500978
  0
LINE
  8
_0-2_00
  6
CONTINUOUS
 62
    3
 10
201.97111394976639
 20
-32.74570742450075
 11
202.11723371827239
 21
-32.895707424500927
  0
INSERT
  2
-017-_D12
  8
_0-2_00
 10
0
 20
-74.25
 41
1
 42
1
 50
0
  0
LINE
  8
_0-2_00
  6
CONTINUOUS
 62
    3
 10
66.386964733941198
 20
-31.02070742453202
 11
68.123635996588874
 21
-31.020707424531224
  0
LINE
  8
_0-2_00
  6
CONTINUOUS
 62
    3
 10
65.755300365265029
 20
-31.845707424532321
 11
65.791324464721328
 21
-31.548508604019972
  0
LINE
  8
_0-2_00
  6
CONTINUOUS
 62
    3
 10
68.755300365265043
 20
-31.845707424530929
 11
68.719276265809441
 21
-31.548508604020185
  0
ARC
  8
_0-2_00
  6
CONTINUOUS
 62
    3
 10
66.386964733941483
 20
-31.620707424532043
 40
0.5999999999999999
 50
90
 51
173.08877288092529
  0
ARC
  8
_0-2_00
  6
CONTINUOUS
 62
    3
 10
68.123635996589158
 20
-31.620707424531219
 40
0.5999999999999999
 50
6.9112271189760843
 51
90
  0
LINE
  8
_0-2_00
  6
CONTINUOUS
 62
    3
 10
68.100549743387063
 20
-13.345707424568971
 11
74.759569917415845
 21
-13.345707424567507
  0
LINE
  8
_0-2_00
  6
CONTINUOUS
 62
    3
 10
74.759569917415845
 20
-13.345707424567507
 11
99.805300365281624
 21
-13.345707424561951
  0
ARC
  8
_0-2_00
  6
CONTINUOUS
 62
    3
 10
164.85502779158301
 20
-5.4928979644881508
 40
50
 50
359.42681859146353
 51
0.8805842506176551
  0
ARC
  8
_0-2_00
  6
CONTINUOUS
 62
    3
 10
132.0795234540735
 20
-168.07735823196467
 40
250
 50
100.68935172789162
 51
103.37524167171851
  0
CIRCLE
  8
_0-2_00
  6
DASHED
 62
    3
 10
87.305300365272188
 20
68.952401083087011
 40
2.875
  0
CIRCLE
  8
_0-2_00
  6
CONTINUOUS
 62
    3
 10
87.305300365272188
 20
68.952401083087011
 40
2.25
  0
ARC
  8
_0-2_00
  6
CONTINUOUS
 62
    3
 10
99.805300365281624
 20
-13.595707424561937
 40
0.25
 50
0
 51
90
  0
LINE
  8
_0-2_00
  6
CONTINUOUS
 62
    3
 10
90.247404540002776
 20
-15.59570742456404
 11
99.472679775425632
 21
-15.595707424562008
  0
LINE
  8
_0-2_00
  6
CONTINUOUS
 62
    3
 10
77.105300365281465
 20
-13.345707424562619
 11
78.705300365281488
 21
-13.34570742456242
  0
LINE
  8
_0-2_00
  6
CONTINUOUS
 62
    3
 10
100.0553003652816
 20
-13.595707424561937
 11
100.0553003652827
 21
-15.405840679288048
  0
LINE
  8
_0-2_00
  6
CONTINUOUS
 62
    3
 10
206.30991225993671
 20
-12.855940964100981
 11
213.85120852423239
 21
-12.855940964100981
  0
LINE
  8
_0-2_00
  6
CENTER
 62
    3
 10
87.305300365281937
 20
57.775321310328593
 11
87.305300365281937
 21
78.958050441954413
  0
ARC
  8
_0-2_00
  6
CONTINUOUS
 62
    3
 10
132.0795234540833
 20
305.98216039816339
 40
250
 50
256.62475832829455
 51
259.3106482721073
  0
CIRCLE
  8
_0-2_00
  6
DASHED
 62
    3
 10
89.805300365281937
 20
73.202401083111795
 40
0.2
  0
TEXT
  8
_0-2_00
 62
    7
 10
114.38976448357241
 20
49.186010963448396
 40
2
 41
1
 50
0
  1
φ１１５
  0
INSERT
  2
-018-M5
  8
_0-2_00
 10
89.576858567045832
 20
67.190116107292312
 41
1
 42
1
 50
0
  0
INSERT
  2
-019-M6
  8
_0-2_00
 10
89.805300365281937
 20
64.702401083111795
 41
1
 42
1
 50
0
  0
INSERT
  2
-020-_D13
  8
_0-2_00
 10
0
 20
-74.25
 41
1
 42
1
 50
0
  0
INSERT
  2
-021-_D14
  8
_0-2_00
 10
0
 20
-74.25
 41
1
 42
1
 50
0
  0
INSERT
  2
-022-_D15
  8
_0-2_00
 10
0
 20
-74.25
 41
1
 42
1
 50
0
  0
INSERT
  2
-023-_D16
  8
_0-2_00
 10
0
 20
-74.25
 41
1
 42
1
 50
0
  0
INSERT
  2
-024-_D17
  8
_0-2_00
 10
0
 20
-74.25
 41
1
 42
1
 50
0
  0
LINE
  8
_0-2_00
  6
CENTER
 62
    3
 10
68.00530036526807
 20
60.071493331055194
 11
68.00530036526807
 21
58.275179985627801
  0
INSERT
  2
-025-_D18
  8
_0-2_00
 10
0
 20
-74.25
 41
1
 42
1
 50
0
  0
ARC
  8
_0-2_00
  6
CONTINUOUS
 62
    3
 10
86.510218735806177
 20
61.549752746852107
 40
15
 50
43.520846460487398
 51
51.757316230201852
  0
ARC
  8
_0-2_00
  6
CONTINUOUS
 62
    3
 10
94.305300365272188
 20
68.952401083087011
 40
4.25
 50
0
 51
43.520846460487398
  0
ARC
  8
_0-2_00
  6
CONTINUOUS
 62
    3
 10
93.555300365272188
 20
68.952401083087011
 40
6.5
 50
0
 51
38.43072660239072
  0
ARC
  8
_0-2_00
  6
CONTINUOUS
 62
    3
 10
88.855138953588778
 20
65.222993260908993
 40
12.5
 50
38.43072660239072
 51
68.496438611012564
  0
ARC
  8
_0-2_00
  6
CONTINUOUS
 62
    3
 10
88.305300365272188
 20
63.827401083087011
 40
14
 50
68.49643861101255
 51
100.68935172789158
  0
ARC
  8
_0-2_00
  6
CONTINUOUS
 62
    3
 10
88.430300365272188
 20
68.952401083087011
 40
6.9750000000000014
 50
86.762492628164935
 51
180
  0
ARC
  8
_0-2_00
  6
CONTINUOUS
 62
    3
 10
88.305300365272188
 20
63.827401083087011
 40
12.1
 50
51.757316230201859
 51
89.663546440895814
  0
ARC
  8
_0-2_00
  6
CONTINUOUS
 62
    3
 10
94.305300365272188
 20
68.952401083087011
 40
4.25
 50
316.47915353951259
 51
0.0000000000000063
  0
ARC
  8
_0-2_00
  6
CONTINUOUS
 62
    3
 10
93.555300365272188
 20
68.952401083087011
 40
6.5
 50
321.56927339760932
 51
0.0000000000000127
  0
ARC
  8
_0-2_00
  6
CONTINUOUS
 62
    3
 10
88.855138953588778
 20
72.681808905265001
 40
12.5
 50
291.50356138898735
 51
321.56927339760932
  0
ARC
  8
_0-2_00
  6
CONTINUOUS
 62
    3
 10
88.305300365272188
 20
74.077401083087011
 40
12.1
 50
270.3364535591042
 51
308.24268376979819
  0
ARC
  8
_0-2_00
  6
CONTINUOUS
 62
    3
 10
86.510218735806177
 20
76.355049419321887
 40
15
 50
308.24268376979819
 51
316.47915353951259
  0
ARC
  8
_0-2_00
  6
CONTINUOUS
 62
    3
 10
88.305300365272188
 20
74.077401083087011
 40
14
 50
259.31064827210838
 51
291.50356138898741
  0
ARC
  8
_0-2_00
  6
CONTINUOUS
 62
    3
 10
88.430300365272188
 20
68.952401083087011
 40
6.9750000000000014
 50
180
 51
273.23750737183508
  0
CIRCLE
  8
_0-2_00
  6
CONTINUOUS
 62
    3
 10
78.055300365281937
 20
72.452401083111795
 40
0.4
  0
ARC
  8
_0-2_00
  6
CONTINUOUS
 62
    3
 10
164.85502779150579
 20
-5.492897964488094
 40
50
 50
352.96661072050421
 51
359.42681859146438
  0
ARC
  8
_0-2_00
  6
CONTINUOUS
 62
    3
 10
211.25323233054439
 20
-11.217329425649467
 40
3.25
 50
333.61831688860622
 51
352.96661072050421
  0
ARC
  8
_0-2_00
  6
CONTINUOUS
 62
    3
 10
213.85120852423239
 20
-12.505940964100972
 40
0.3499999999999999
 50
270
 51
333.61831688860639
  0
ARC
  8
_0-2_00
  6
CONTINUOUS
 62
    3
 10
247.7647967282997
 20
-5.4928979645401625
 40
50
 50
179.11941574931041
 51
180.57318140846459
  0
LINE
  8
_0-2_00
  6
CONTINUOUS
 62
    3
 10
206.30991225993671
 20
-12.855940964100981
 11
198.768615995641
 21
-12.855940964091531
  0
ARC
  8
_0-2_00
  6
CONTINUOUS
 62
    3
 10
247.76479672837689
 20
-5.4928979645401057
 40
50
 50
180.5731814084638
 51
187.03338927942394
  0
ARC
  8
_0-2_00
  6
CONTINUOUS
 62
    3
 10
201.3665921893311
 20
-11.217329425643257
 40
3.25
 50
187.03338927942389
 51
206.38168311132191
  0
ARC
  8
_0-2_00
  6
CONTINUOUS
 62
    3
 10
198.7686159956414
 20
-12.505940964091522
 40
0.3499999999999999
 50
206.38168311132182
 51
270
  0
ARC
  8
_0-2_00
  6
CONTINUOUS
 62
    3
 10
206.28491225963839
 20
146.9542925754177
 40
159.90000000000001
 50
268.08004624372421
 51
270
  0
LINE
  8
_0-2_00
  6
CONTINUOUS
 62
    3
 10
200.78491225963811
 20
-13.345707424486832
 11
200.82488955678741
 21
-12.945934453067721
  0
ARC
  8
_0-2_00
  6
CONTINUOUS
 62
    3
 10
200.92439327580831
 20
-12.955884824971633
 40
0.1
 50
88.080046243725022
 51
174.28940686145199
  0
ARC
  8
_0-2_00
  6
CONTINUOUS
 62
    3
 10
203.38491225963841
 20
-12.945707424579027
 40
0.1
 50
116.14723203597011
 51
163.69820685417429
  0
ARC
  8
_0-2_00
  6
CONTINUOUS
 62
    3
 10
206.28491225983899
 20
146.9542925754177
 40
159.90000000000001
 50
269.99999999992821
 51
271.91995375620388
  0
LINE
  8
_0-2_00
  6
CONTINUOUS
 62
    3
 10
211.78491225963819
 20
-13.345707424493725
 11
211.74493496248931
 21
-12.945934453074585
  0
ARC
  8
_0-2_00
  6
CONTINUOUS
 62
    3
 10
211.64543124346849
 20
-12.955884824978369
 40
0.1
 50
5.7105931384761393
 51
91.919953756203086
  0
ARC
  8
_0-2_00
  6
CONTINUOUS
 62
    3
 10
209.18491225963839
 20
-12.945707424582679
 40
0.1
 50
16.301793145752747
 51
63.852767963925082
  0
INSERT
  2
-026-_D19
  8
_0-2_00
 10
0
 20
-74.25
 41
1
 42
1
 50
0
  0
INSERT
  2
-027-_D20
  8
_0-2_00
 10
0
 20
-74.25
 41
1
 42
1
 50
0
  0
INSERT
  2
-028-_D21
  8
_0-2_00
 10
0
 20
-74.25
 41
1
 42
1
 50
0
  0
ARC
  8
_0-2_00
  6
CONTINUOUS
 62
    3
 10
66.790300365279336
 20
-28.235707424563856
 40
0.0149999999999999
 50
0
 51
90
  0
LINE
  8
_0-2_00
  6
CONTINUOUS
 62
    3
 10
63.055300365293057
 20
-31.8457074245336
 11
63.055300365257672
 21
24.567319844692776
  0
TEXT
  8
_0-2_00
 62
    7
 10
23.50373597801169
 20
-56.136338814556154
 40
3.0999999046325679
 41
1
 50
0
  1
間接排水
  0
TEXT
  8
_0-2_00
 62
    7
 10
17.710055893041982
 20
-28.006519521201653
 40
2
 41
1
 50
0
  1
（ＶＰ－２５に接続）
  0
LINE
  8
_0-2_00
  6
CENTER
 62
    3
 10
78.72044502333523
 20
72.452401083111795
 11
77.46703896112632
 21
72.452401083111795
  0
LINE
  8
_0-2_00
  6
CENTER
 62
    3
 10
78.055300365281937
 20
73.186474646058997
 11
78.055300365281937
 21
71.70357188417691
  0
POINT
  8
_0-2_00
 62
    3
 10
100.0553003652722
 20
68.952401083111795
  0
INSERT
  2
-029-_D22
  8
_0-2_00
 10
0
 20
-74.25
 41
1
 42
1
 50
0
  0
LINE
  8
_0-2_00
  6
CENTER
 62
    3
 10
61.969252979202011
 20
68.952401083111795
 11
65.129508256169302
 21
68.952401083111795
  0
LINE
  8
_0-2_00
  6
CENTER
 62
    3
 10
71.621805884875997
 20
68.952401083111795
 11
103.2597200921487
 21
68.952401083111795
  0
POINT
  8
_0-2_00
 62
    3
 10
87.30530036529305
 20
-31.845707424564694
  0
POINT
  8
_0-2_00
 62
    3
 10
68.00530036526807
 20
59.702401083149795
  0
POINT
  8
_0-2_00
 62
    3
 10
63.055300365266532
 20
56.202401083034289
  0
POINT
  8
_0-2_00
 62
    3
 10
206.3099122599248
 20
-31.845707424514927
  0
LINE
  8
_0-2_00
  6
CONTINUOUS
 62
    3
 10
68.322800365266005
 20
-6.3457074244403771
 11
68.322800365266545
 21
4.1542925754350648
  0
LINE
  8
_0-2_00
  6
CONTINUOUS
 62
    3
 10
68.455300365267703
 20
-6.3457074244403628
 11
67.555300365267684
 21
-6.3457074244404623
  0
LINE
  8
_0-2_00
  6
CONTINUOUS
 62
    3
 10
68.580300365267647
 20
-7.2957074244403657
 11
67.430300365267641
 21
-7.2957074244404936
  0
LINE
  8
_0-2_00
  6
CONTINUOUS
 62
    3
 10
68.642800365267661
 20
-7.1957074244403429
 11
68.642800365267675
 21
-6.7457074244403259
  0
LINE
  8
_0-2_00
  6
CONTINUOUS
 62
    3
 10
67.367800365267669
 20
-7.1957074244404566
 11
67.367800365267698
 21
-6.7457074244404822
  0
LINE
  8
_0-2_00
  6
CONTINUOUS
 62
    3
 10
68.455300365267675
 20
-6.3457074244403628
 11
68.642800365267661
 21
-6.7457074244403401
  0
LINE
  8
_0-2_00
  6
CONTINUOUS
 62
    3
 10
67.555300365267726
 20
-6.3457074244404481
 11
67.367800365267698
 21
-6.745707424440468
  0
LINE
  8
_0-2_00
  6
CONTINUOUS
 62
    3
 10
68.642800365267675
 20
-7.1957074244403145
 11
68.580300365267661
 21
-7.2957074244403373
  0
LINE
  8
_0-2_00
  6
CONTINUOUS
 62
    3
 10
67.367800365267613
 20
-7.1957074244404993
 11
67.430300365267613
 21
-7.2957074244404936
  0
LINE
  8
_0-2_00
  6
CONTINUOUS
 62
    3
 10
68.305300365267669
 20
-7.1957074244403714
 11
68.305300365267684
 21
-6.7457074244403685
  0
LINE
  8
_0-2_00
  6
CONTINUOUS
 62
    3
 10
67.705300365267661
 20
-7.1957074244404282
 11
67.705300365267675
 21
-6.7457074244404254
  0
LINE
  8
_0-2_00
  6
CONTINUOUS
 62
    3
 10
68.455300365267732
 20
-6.5707074244403714
 11
67.555300365267698
 21
-6.5707074244404708
  0
ARC
  8
_0-2_00
  6
CONTINUOUS
 62
    3
 10
68.005300365267715
 20
-6.9153502815832439
 40
0.3446428571428544
 50
29.487125672950409
 51
150.51287432706221
  0
ARC
  8
_0-2_00
  6
CONTINUOUS
 62
    3
 10
68.005300365267573
 20
-6.3207074244403714
 40
0.9250000000000235
 50
251.07535558395557
 51
288.92464441605728
  0
ARC
  8
_0-2_00
  6
CONTINUOUS
 62
    3
 10
67.353145400577716
 20
-6.7455171259477282
 40
0.2646550331064229
 50
359.95880183613082
 51
14.615185898823182
  0
ARC
  8
_0-2_00
  6
CONTINUOUS
 62
    3
 10
67.408549324598511
 20
-6.7313171452370995
 40
0.2074609672102042
 50
14.681285647413608
 51
31.809959893121711
  0
ARC
  8
_0-2_00
  6
CONTINUOUS
 62
    3
 10
67.474542017321781
 20
-6.6915664725906936
 40
0.1304314565603849
 50
32.251358943273765
 51
55.535681718608863
  0
ARC
  8
_0-2_00
  6
CONTINUOUS
 62
    3
 10
67.503805430127642
 20
-6.651768246170306
 40
0.0810746054606187
 50
56.670390320530089
 51
88.943462899594977
  0
ARC
  8
_0-2_00
  6
CONTINUOUS
 62
    3
 10
67.505607530265323
 20
-6.6479295380486434
 40
0.0772227245080922
 50
90.227903178701595
 51
124.15824360106984
  0
ARC
  8
_0-2_00
  6
CONTINUOUS
 62
    3
 10
67.52797081192432
 20
-6.683785072798031
 40
0.1194604436523988
 50
123.37797603810645
 51
148.83498329992338
  0
ARC
  8
_0-2_00
  6
CONTINUOUS
 62
    3
 10
67.584318645255607
 20
-6.7229976269030942
 40
0.1880201895993502
 50
147.49612842268047
 51
162.38994214032749
  0
ARC
  8
_0-2_00
  6
CONTINUOUS
 62
    3
 10
68.416659756997007
 20
-6.7274962446226851
 40
0.1985573641655085
 50
18.00731894246163
 51
32.106610494427386
  0
ARC
  8
_0-2_00
  6
CONTINUOUS
 62
    3
 10
68.474542017321781
 20
-6.6915664725905799
 40
0.1304314565603849
 50
32.251358943273765
 51
55.535681718608863
  0
ARC
  8
_0-2_00
  6
CONTINUOUS
 62
    3
 10
68.503805430127642
 20
-6.6517682461701924
 40
0.0810746054606187
 50
56.670390320530089
 51
88.943462899594977
  0
ARC
  8
_0-2_00
  6
CONTINUOUS
 62
    3
 10
68.505607530265323
 20
-6.6479295380485297
 40
0.0772227245080922
 50
90.227903178701595
 51
124.15824360106984
  0
ARC
  8
_0-2_00
  6
CONTINUOUS
 62
    3
 10
68.52797081192432
 20
-6.6837850727979173
 40
0.1194604436523988
 50
123.37797603810645
 51
148.83498329992338
  0
ARC
  8
_0-2_00
  6
CONTINUOUS
 62
    3
 10
68.590011472649621
 20
-6.7261454712356255
 40
0.1945131999779196
 50
147.61522720527131
 51
165.89352725407571
  0
ARC
  8
_0-2_00
  6
CONTINUOUS
 62
    3
 10
68.651583106342173
 20
-6.7447662315827159
 40
0.2587844526280936
 50
165.21762842741472
 51
180.20838383753562
  0
ARC
  8
_0-2_00
  6
CONTINUOUS
 62
    3
 10
67.419369657570073
 20
-7.1952996694629832
 40
0.0265724209956966
 50
180.87924078312471
 51
227.34283440950489
  0
ARC
  8
_0-2_00
  6
CONTINUOUS
 62
    3
 10
67.450986585494519
 20
-7.1666810475019815
 40
0.0691509044079252
 50
224.14333959341019
 51
248.59628590947426
  0
ARC
  8
_0-2_00
  6
CONTINUOUS
 62
    3
 10
67.488142897812409
 20
-7.0878357974547299
 40
0.1562265378710625
 50
246.46125876167412
 51
260.45924207872571
  0
ARC
  8
_0-2_00
  6
CONTINUOUS
 62
    3
 10
67.504474966771781
 20
-7.0096499159445074
 40
0.2360589515353774
 50
259.6954054933052
 51
270.20033956046638
  0
ARC
  8
_0-2_00
  6
CONTINUOUS
 62
    3
 10
67.50546697417397
 20
-7.0021980083707405
 40
0.2435094730665169
 50
269.960798289335
 51
280.14345665677422
  0
ARC
  8
_0-2_00
  6
CONTINUOUS
 62
    3
 10
67.517922467862192
 20
-7.0725635777852034
 40
0.1720501965130392
 50
280.18725036510835
 51
292.89224879440997
  0
ARC
  8
_0-2_00
  6
CONTINUOUS
 62
    3
 10
67.552783612780189
 20
-7.1564120120821713
 40
0.08124641568745
 50
293.24596427291635
 51
314.0144102241066
  0
ARC
  8
_0-2_00
  6
CONTINUOUS
 62
    3
 10
67.587803562471976
 20
-7.1937656774535839
 40
0.0300595834855376
 50
315.48161633882302
 51
356.29630846837387
  0
ARC
  8
_0-2_00
  6
CONTINUOUS
 62
    3
 10
68.419369657570073
 20
-7.1952996694628695
 40
0.0265724209956966
 50
180.87924078312471
 51
227.34283440950489
  0
ARC
  8
_0-2_00
  6
CONTINUOUS
 62
    3
 10
68.450986585494519
 20
-7.1666810475018679
 40
0.0691509044079252
 50
224.14333959341019
 51
248.59628590947426
  0
ARC
  8
_0-2_00
  6
CONTINUOUS
 62
    3
 10
68.488142897812409
 20
-7.0878357974546162
 40
0.1562265378710625
 50
246.46125876167412
 51
260.45924207872571
  0
ARC
  8
_0-2_00
  6
CONTINUOUS
 62
    3
 10
68.504474966771781
 20
-7.0096499159443937
 40
0.2360589515353774
 50
259.6954054933052
 51
270.20033956046638
  0
ARC
  8
_0-2_00
  6
CONTINUOUS
 62
    3
 10
68.50546697417397
 20
-7.0021980083706268
 40
0.2435094730665169
 50
269.960798289335
 51
280.14345665677422
  0
ARC
  8
_0-2_00
  6
CONTINUOUS
 62
    3
 10
68.517922467862192
 20
-7.0725635777850897
 40
0.1720501965130392
 50
280.18725036510835
 51
292.89224879440997
  0
ARC
  8
_0-2_00
  6
CONTINUOUS
 62
    3
 10
68.552783612780189
 20
-7.1564120120820576
 40
0.08124641568745
 50
293.24596427291635
 51
314.0144102241066
  0
ARC
  8
_0-2_00
  6
CONTINUOUS
 62
    3
 10
68.587803562471976
 20
-7.1937656774534702
 40
0.0300595834855376
 50
315.48161633882302
 51
356.29630846837387
  0
LINE
  8
_0-2_00
  6
CONTINUOUS
 62
    3
 10
67.617800365267698
 20
-6.7457074244402691
 11
67.617800365267897
 21
-7.1957074244404424
  0
LINE
  8
_0-2_00
  6
CONTINUOUS
 62
    3
 10
68.392800365267675
 20
-6.7457074244403969
 11
68.392800365267647
 21
-7.1957074244403145
  0
LINE
  8
_0-2_00
  6
CONTINUOUS
 62
    3
 10
69.355300365267581
 20
-8.6207074244399848
 11
69.355300365267624
 21
-8.0707074244399735
  0
LINE
  8
_0-2_00
  6
CONTINUOUS
 62
    3
 10
69.555300365267584
 20
-8.5957074244399507
 11
69.355300365267567
 21
-8.5957074244399791
  0
LINE
  8
_0-2_00
  6
CONTINUOUS
 62
    3
 10
69.555300365267613
 20
-8.0957074244399507
 11
69.355300365267624
 21
-8.0957074244399791
  0
ARC
  8
_0-2_00
  6
CONTINUOUS
 62
    3
 10
69.555300365267613
 20
-8.1457074244399479
 40
0.05
 50
359.99999999997448
 51
89.999999999974563
  0
ARC
  8
_0-2_00
  6
CONTINUOUS
 62
    3
 10
69.555300365267584
 20
-8.5457074244399536
 40
0.05
 50
269.99999999997442
 51
359.99999999997448
  0
LINE
  8
_0-2_00
  6
CONTINUOUS
 62
    3
 10
69.605300365267595
 20
-8.3957074244399479
 11
69.505300365267601
 21
-8.3957074244399621
  0
LINE
  8
_0-2_00
  6
CONTINUOUS
 62
    3
 10
69.605300365267595
 20
-8.2957074244399394
 11
69.505300365267601
 21
-8.2957074244399536
  0
LINE
  8
_0-2_00
  6
CONTINUOUS
 62
    3
 10
69.605300365267581
 20
-8.5457074244399678
 11
69.605300365267581
 21
-8.3957074244399337
  0
LINE
  8
_0-2_00
  6
CONTINUOUS
 62
    3
 10
69.605300365267595
 20
-8.2957074244399394
 11
69.605300365267595
 21
-8.1457074244399479
  0
LINE
  8
_0-2_00
  6
CONTINUOUS
 62
    3
 10
69.505300365267601
 20
-8.3957074244399479
 11
69.505300365267601
 21
-8.2957074244399536
  0
LINE
  8
_0-2_00
  6
CONTINUOUS
 62
    3
 10
69.105300365267567
 20
-8.9957074244400133
 11
69.105300365267638
 21
-7.6957074244399877
  0
LINE
  8
_0-2_00
  6
CONTINUOUS
 62
    3
 10
68.755300365267573
 20
-8.9957074244400417
 11
68.75530036526763
 21
-7.6957074244400161
  0
ARC
  8
_0-2_00
  6
CONTINUOUS
 62
    3
 10
68.930300365267669
 20
-7.9769574244400445
 40
0.3312500000000225
 50
58.109208198170641
 51
121.8907918018414
  0
ARC
  8
_0-2_00
  6
CONTINUOUS
 62
    3
 10
68.930300365267527
 20
-8.7144574244400133
 40
0.3312500000000058
 50
238.10920819815911
 51
301.89079180185308
  0
LINE
  8
_0-2_00
  6
CONTINUOUS
 62
    3
 10
69.355300365267624
 20
-8.0707074244399735
 11
69.105300365267595
 21
-7.6957074244399735
  0
LINE
  8
_0-2_00
  6
CONTINUOUS
 62
    3
 10
69.355300365267595
 20
-8.6207074244399706
 11
69.105300365267581
 21
-8.995707424439999
  0
ARC
  8
_0-2_00
  6
CONTINUOUS
 62
    3
 10
69.225022798976653
 20
-8.346034513832663
 40
0.4447225539849583
 50
179.95785947160181
 51
193.0114381745077
  0
ARC
  8
_0-2_00
  6
CONTINUOUS
 62
    3
 10
69.117762666921806
 20
-8.3704609206028522
 40
0.3347169967312073
 50
193.07132971063584
 51
208.72401953689541
  0
ARC
  8
_0-2_00
  6
CONTINUOUS
 62
    3
 10
68.989971300699807
 20
-8.4388441842018693
 40
0.1897921505579885
 50
209.16087154098071
 51
231.91346987507259
  0
ARC
  8
_0-2_00
  6
CONTINUOUS
 62
    3
 10
68.933212552600367
 20
-8.5073986020671981
 40
0.1008508775529543
 50
233.26904172972064
 51
268.3452871816678
  0
ARC
  8
_0-2_00
  6
CONTINUOUS
 62
    3
 10
68.929698823375801
 20
-8.5140365443416357
 40
0.094172801334375
 50
270.36598727071578
 51
308.01968381778579
  0
ARC
  8
_0-2_00
  6
CONTINUOUS
 62
    3
 10
68.8862915791549
 20
-8.4522385058579914
 40
0.1696372500451899
 50
306.71340328752416
 51
332.21225529634449
  0
ARC
  8
_0-2_00
  6
CONTINUOUS
 62
    3
 10
68.766137359611307
 20
-8.3793569730891164
 40
0.3100280379156624
 50
330.64834214910888
 51
347.55630860324067
  0
ARC
  8
_0-2_00
  6
CONTINUOUS
 62
    3
 10
68.646942458158506
 20
-8.3473262537674344
 40
0.4333609307157598
 50
346.81667220629095
 51
0.2140301475016692
  0
ARC
  8
_0-2_00
  6
CONTINUOUS
 62
    3
 10
68.635577931578069
 20
-8.3453803350473805
 40
0.4447225539849573
 50
359.95785947160181
 51
13.011438174507713
  0
ARC
  8
_0-2_00
  6
CONTINUOUS
 62
    3
 10
68.742838063632917
 20
-8.3209539282771914
 40
0.3347169967312054
 50
13.071329710635778
 51
28.724019536895426
  0
ARC
  8
_0-2_00
  6
CONTINUOUS
 62
    3
 10
68.870629429854915
 20
-8.2525706646781742
 40
0.1897921505579889
 50
29.160871540980725
 51
51.913469875072614
  0
ARC
  8
_0-2_00
  6
CONTINUOUS
 62
    3
 10
68.927388177954356
 20
-8.1840162468128455
 40
0.1008508775529543
 50
53.269041729720669
 51
88.345287181667771
  0
ARC
  8
_0-2_00
  6
CONTINUOUS
 62
    3
 10
68.930901907178921
 20
-8.1773783045384079
 40
0.0941728013343756
 50
90.365987270715848
 51
128.01968381778568
  0
ARC
  8
_0-2_00
  6
CONTINUOUS
 62
    3
 10
68.974309151399822
 20
-8.2391763430220522
 40
0.1696372500451912
 50
126.71340328752433
 51
152.21225529634447
  0
ARC
  8
_0-2_00
  6
CONTINUOUS
 62
    3
 10
69.094463370943416
 20
-8.3120578757909271
 40
0.3100280379156635
 50
150.64834214910894
 51
167.55630860324061
  0
ARC
  8
_0-2_00
  6
CONTINUOUS
 62
    3
 10
69.213658272396216
 20
-8.3440885951126091
 40
0.4333609307157639
 50
166.816672206291
 51
180.2140301475016
  0
ARC
  8
_0-2_00
  6
CONTINUOUS
 62
    3
 10
68.886646886796569
 20
-8.9206034901485367
 40
0.1063465723082929
 50
180.05599613662628
 51
206.79401386786375
  0
ARC
  8
_0-2_00
  6
CONTINUOUS
 62
    3
 10
68.902614280490042
 20
-8.9129372940738136
 40
0.1240559014950248
 50
206.63017023131431
 51
230.81610910414125
  0
ARC
  8
_0-2_00
  6
CONTINUOUS
 62
    3
 10
68.921546092401627
 20
-8.8915773350926486
 40
0.1525783687591091
 50
230.37336957470276
 51
251.40715112998632
  0
ARC
  8
_0-2_00
  6
CONTINUOUS
 62
    3
 10
68.929878873770505
 20
-8.8703435143694094
 40
0.1753644166025318
 50
251.03871305447953
 51
270.1377115615586
  0
ARC
  8
_0-2_00
  6
CONTINUOUS
 62
    3
 10
68.930385773231208
 20
-8.8683159870352313
 40
0.1773914579653029
 50
269.97241402950954
 51
288.85116135436488
  0
ARC
  8
_0-2_00
  6
CONTINUOUS
 62
    3
 10
68.936741005452205
 20
-8.887422219855722
 40
0.1572566979679531
 50
288.90912388580364
 51
309.31035540941645
  0
ARC
  8
_0-2_00
  6
CONTINUOUS
 62
    3
 10
68.954514866625644
 20
-8.9101537286024808
 40
0.1284102745603502
 50
309.5998415009675
 51
332.95387916346436
  0
ARC
  8
_0-2_00
  6
CONTINUOUS
 62
    3
 10
68.972253133848355
 20
-8.9201975394676367
 40
0.1080484345190094
 50
333.42037212097313
 51
359.729617874425
  0
ARC
  8
_0-2_00
  6
CONTINUOUS
 62
    3
 10
68.97395384375676
 20
-8.9208113587315125
 40
0.1063465723082925
 50
0.0559961366261927
 51
26.794013867863818
  0
ARC
  8
_0-2_00
  6
CONTINUOUS
 62
    3
 10
68.957986450063288
 20
-8.9284775548062356
 40
0.1240559014950246
 50
26.630170231314288
 51
50.816109104141297
  0
ARC
  8
_0-2_00
  6
CONTINUOUS
 62
    3
 10
68.939054638151703
 20
-8.9498375137874007
 40
0.1525783687591089
 50
50.373369574702778
 51
71.407151129986332
  0
ARC
  8
_0-2_00
  6
CONTINUOUS
 62
    3
 10
68.930721856782824
 20
-8.9710713345106399
 40
0.1753644166025313
 50
71.03871305447953
 51
90.137711561558604
  0
ARC
  8
_0-2_00
  6
CONTINUOUS
 62
    3
 10
68.930214957322121
 20
-8.973098861844818
 40
0.1773914579653025
 50
89.972414029509522
 51
108.85116135436489
  0
ARC
  8
_0-2_00
  6
CONTINUOUS
 62
    3
 10
68.923859725101124
 20
-8.9539926290243272
 40
0.157256697967953
 50
108.90912388580358
 51
129.31035540941645
  0
ARC
  8
_0-2_00
  6
CONTINUOUS
 62
    3
 10
68.906085863927672
 20
-8.9312611202775969
 40
0.1284102745603722
 50
129.59984150095531
 51
152.95387916345214
  0
ARC
  8
_0-2_00
  6
CONTINUOUS
 62
    3
 10
68.888347596704961
 20
-8.9212173094123841
 40
0.1080484345190027
 50
153.42037212098924
 51
179.72961787444095
  0
ARC
  8
_0-2_00
  6
CONTINUOUS
 62
    3
 10
68.88664688679799
 20
-7.770603490148531
 40
0.1063465723082929
 50
180.05599613662628
 51
206.79401386786375
  0
ARC
  8
_0-2_00
  6
CONTINUOUS
 62
    3
 10
68.902614280491463
 20
-7.7629372940738079
 40
0.1240559014950248
 50
206.63017023131431
 51
230.81610910414125
  0
ARC
  8
_0-2_00
  6
CONTINUOUS
 62
    3
 10
68.92154609240302
 20
-7.7415773350926429
 40
0.1525783687591091
 50
230.37336957470276
 51
251.40715112998632
  0
ARC
  8
_0-2_00
  6
CONTINUOUS
 62
    3
 10
68.929878873771912
 20
-7.7203435143694037
 40
0.1753644166025318
 50
251.03871305447953
 51
270.1377115615586
  0
ARC
  8
_0-2_00
  6
CONTINUOUS
 62
    3
 10
68.930385773232615
 20
-7.7183159870352256
 40
0.1773914579653029
 50
269.97241402950954
 51
288.85116135436488
  0
ARC
  8
_0-2_00
  6
CONTINUOUS
 62
    3
 10
68.936741005453626
 20
-7.7374222198557163
 40
0.1572566979679531
 50
288.90912388580364
 51
309.31035540941645
  0
ARC
  8
_0-2_00
  6
CONTINUOUS
 62
    3
 10
68.954514866627051
 20
-7.7601537286024751
 40
0.1284102745603502
 50
309.5998415009675
 51
332.95387916346436
  0
ARC
  8
_0-2_00
  6
CONTINUOUS
 62
    3
 10
68.972253133849762
 20
-7.770197539467631
 40
0.1080484345190094
 50
333.42037212097313
 51
359.729617874425
  0
ARC
  8
_0-2_00
  6
CONTINUOUS
 62
    3
 10
68.973953843758153
 20
-7.7708113587315069
 40
0.1063465723082925
 50
0.0559961366261927
 51
26.794013867863818
  0
ARC
  8
_0-2_00
  6
CONTINUOUS
 62
    3
 10
68.957986450064681
 20
-7.7784775548062299
 40
0.1240559014950246
 50
26.630170231314288
 51
50.816109104141297
  0
ARC
  8
_0-2_00
  6
CONTINUOUS
 62
    3
 10
68.939054638153124
 20
-7.799837513787395
 40
0.1525783687591089
 50
50.373369574702778
 51
71.407151129986332
  0
ARC
  8
_0-2_00
  6
CONTINUOUS
 62
    3
 10
68.930721856784231
 20
-7.8210713345106342
 40
0.1753644166025313
 50
71.03871305447953
 51
90.137711561558604
  0
ARC
  8
_0-2_00
  6
CONTINUOUS
 62
    3
 10
68.930214957323528
 20
-7.8230988618448123
 40
0.1773914579653025
 50
89.972414029509522
 51
108.85116135436489
  0
ARC
  8
_0-2_00
  6
CONTINUOUS
 62
    3
 10
68.923859725102517
 20
-7.8039926290243216
 40
0.157256697967953
 50
108.90912388580358
 51
129.31035540941645
  0
ARC
  8
_0-2_00
  6
CONTINUOUS
 62
    3
 10
68.906085863929093
 20
-7.7812611202775912
 40
0.1284102745603722
 50
129.59984150095531
 51
152.95387916345214
  0
ARC
  8
_0-2_00
  6
CONTINUOUS
 62
    3
 10
68.888347596706382
 20
-7.7712173094123784
 40
0.1080484345190027
 50
153.42037212098924
 51
179.72961787444095
  0
LINE
  8
_0-2_00
  6
CONTINUOUS
 62
    3
 10
68.75530036526763
 20
-7.7457074244403259
 11
68.707710725809434
 21
-7.7457074244403259
  0
ARC
  8
_0-2_00
  6
CONTINUOUS
 62
    3
 10
69.54425036877538
 20
-7.0762324226863171
 40
1.0733284149593549
 50
191.7991044774308
 51
218.46060165665531
  0
ARC
  8
_0-2_00
  6
CONTINUOUS
 62
    3
 10
68.70771072580942
 20
-7.7407074244403162
 40
0.005
 50
218.4606016566573
 51
269.99999999997448
  0
LINE
  8
_0-2_00
  6
CONTINUOUS
 62
    3
 10
66.55530036526757
 20
-8.9457074244405561
 11
66.555300365267641
 21
-7.7457074244405533
  0
ARC
  8
_0-2_00
  6
CONTINUOUS
 62
    3
 10
67.006328321798506
 20
-8.3459849374478097
 40
0.4135280496485229
 50
179.96154958463174
 51
196.07838834074784
  0
ARC
  8
_0-2_00
  6
CONTINUOUS
 62
    3
 10
66.933091151455216
 20
-8.3666753805593146
 40
0.337425622507379
 50
196.14666408149574
 51
214.50908708212492
  0
ARC
  8
_0-2_00
  6
CONTINUOUS
 62
    3
 10
66.845885029269596
 20
-8.4245830321836053
 40
0.2327639016583524
 50
214.92447066814319
 51
238.41737066830598
  0
ARC
  8
_0-2_00
  6
CONTINUOUS
 62
    3
 10
66.807267583042346
 20
-8.4824920533609713
 40
0.16322722598395
 50
239.31920825829738
 51
269.30945340763174
  0
ARC
  8
_0-2_00
  6
CONTINUOUS
 62
    3
 10
66.804897568393528
 20
-8.4880630064696589
 40
0.1576449325627042
 50
270.14639599010911
 51
301.22494234385039
  0
ARC
  8
_0-2_00
  6
CONTINUOUS
 62
    3
 10
66.775401331790377
 20
-8.4359108236736517
 40
0.2175406587925689
 50
300.74761819103617
 51
325.91054047241812
  0
ARC
  8
_0-2_00
  6
CONTINUOUS
 62
    3
 10
66.693429997459404
 20
-8.3742104063489649
 40
0.3200500879002701
 50
324.98779040382755
 51
344.35645843245038
  0
ARC
  8
_0-2_00
  6
CONTINUOUS
 62
    3
 10
66.612037619671099
 20
-8.3470790266281796
 40
0.4057650638073188
 50
343.76638555283864
 51
0.1936765216805176
  0
ARC
  8
_0-2_00
  6
CONTINUOUS
 62
    3
 10
66.604272408736662
 20
-8.3454299114332855
 40
0.4135280496485254
 50
359.96154958463183
 51
16.0783883407478
  0
ARC
  8
_0-2_00
  6
CONTINUOUS
 62
    3
 10
66.677509579079953
 20
-8.3247394683217806
 40
0.3374256225073779
 50
16.146664081495693
 51
34.509087082124935
  0
ARC
  8
_0-2_00
  6
CONTINUOUS
 62
    3
 10
66.764715701265573
 20
-8.2668318166974899
 40
0.2327639016583517
 50
34.924470668143194
 51
58.417370668306027
  0
ARC
  8
_0-2_00
  6
CONTINUOUS
 62
    3
 10
66.803333147492822
 20
-8.2089227955201238
 40
0.1632272259839502
 50
59.319208258297408
 51
89.309453407631764
  0
ARC
  8
_0-2_00
  6
CONTINUOUS
 62
    3
 10
66.805703162141668
 20
-8.2033518424114362
 40
0.1576449325627115
 50
90.146395990118393
 51
121.22494234385962
  0
ARC
  8
_0-2_00
  6
CONTINUOUS
 62
    3
 10
66.835199398744749
 20
-8.2555040252074434
 40
0.2175406587925465
 50
120.74761819102993
 51
145.91054047241195
  0
ARC
  8
_0-2_00
  6
CONTINUOUS
 62
    3
 10
66.917170733075764
 20
-8.3172044425321303
 40
0.3200500879002696
 50
144.98779040382749
 51
164.35645843245041
  0
ARC
  8
_0-2_00
  6
CONTINUOUS
 62
    3
 10
66.998563110864069
 20
-8.3443358222529156
 40
0.4057650638073191
 50
163.76638555283864
 51
180.19367652168049
  0
ARC
  8
_0-2_00
  6
CONTINUOUS
 62
    3
 10
66.703763945395593
 20
-7.7954190563990693
 40
0.1109639548274254
 50
180.14889781407052
 51
211.32598082804668
  0
ARC
  8
_0-2_00
  6
CONTINUOUS
 62
    3
 10
66.740963241335294
 20
-7.7743062061233417
 40
0.1537227035263485
 50
210.83954697085352
 51
236.01689270096423
  0
ARC
  8
_0-2_00
  6
CONTINUOUS
 62
    3
 10
66.784970968576815
 20
-7.7156361928801118
 40
0.227000190921188
 50
235.08351146750479
 51
254.41415532422286
  0
ARC
  8
_0-2_00
  6
CONTINUOUS
 62
    3
 10
66.804322094420399
 20
-7.6573817467708523
 40
0.2883273372705684
 50
253.82044492986512
 51
270.19440022176184
  0
ARC
  8
_0-2_00
  6
CONTINUOUS
 62
    3
 10
66.805498291140765
 20
-7.6518240797030046
 40
0.2938834113875349
 50
269.9614121872537
 51
286.02374266099599
  0
ARC
  8
_0-2_00
  6
CONTINUOUS
 62
    3
 10
66.820255481636039
 20
-7.7042416894373531
 40
0.2394290215103845
 50
286.09201419326843
 51
304.41031901491772
  0
ARC
  8
_0-2_00
  6
CONTINUOUS
 62
    3
 10
66.861557780430246
 20
-7.7666580636559104
 40
0.164598563868354
 50
304.82719506769729
 51
328.31636526036425
  0
ARC
  8
_0-2_00
  6
CONTINUOUS
 62
    3
 10
66.90286282552178
 20
-7.7942992243022644
 40
0.1149461659667811
 50
329.22706684983547
 51
359.29805450796101
  0
ARC
  8
_0-2_00
  6
CONTINUOUS
 62
    3
 10
66.906836785139689
 20
-7.7959957924820031
 40
0.1109639548274258
 50
0.1488978140705604
 51
31.325980828046614
  0
ARC
  8
_0-2_00
  6
CONTINUOUS
 62
    3
 10
66.869637489199988
 20
-7.8171086427577308
 40
0.1537227035263482
 50
30.839546970853505
 51
56.016892700964213
  0
ARC
  8
_0-2_00
  6
CONTINUOUS
 62
    3
 10
66.825629761958467
 20
-7.8757786560009606
 40
0.2270001909211873
 50
55.083511467504735
 51
74.414155324222861
  0
ARC
  8
_0-2_00
  6
CONTINUOUS
 62
    3
 10
66.806278636114882
 20
-7.9340331021102202
 40
0.288327337270568
 50
73.820444929865118
 51
90.194400221761839
  0
ARC
  8
_0-2_00
  6
CONTINUOUS
 62
    3
 10
66.805102439394517
 20
-7.9395907691780678
 40
0.2938834113875347
 50
89.9614121872537
 51
106.02374266099599
  0
ARC
  8
_0-2_00
  6
CONTINUOUS
 62
    3
 10
66.790345248899243
 20
-7.8871731594437193
 40
0.2394290215103835
 50
106.0920141932683
 51
124.41031901491768
  0
ARC
  8
_0-2_00
  6
CONTINUOUS
 62
    3
 10
66.749042950105022
 20
-7.824756785225162
 40
0.1645985638683532
 50
124.82719506769722
 51
148.31636526036431
  0
ARC
  8
_0-2_00
  6
CONTINUOUS
 62
    3
 10
66.707737905013502
 20
-7.797115624578808
 40
0.1149461659667808
 50
149.2270668498355
 51
179.29805450796107
  0
ARC
  8
_0-2_00
  6
CONTINUOUS
 62
    3
 10
66.703763945395536
 20
-8.8954190563990778
 40
0.1109639548274254
 50
180.14889781407052
 51
211.32598082804668
  0
ARC
  8
_0-2_00
  6
CONTINUOUS
 62
    3
 10
66.740963241335209
 20
-8.8743062061233502
 40
0.1537227035263485
 50
210.83954697085352
 51
236.01689270096423
  0
ARC
  8
_0-2_00
  6
CONTINUOUS
 62
    3
 10
66.784970968576744
 20
-8.8156361928801203
 40
0.227000190921188
 50
235.08351146750479
 51
254.41415532422286
  0
ARC
  8
_0-2_00
  6
CONTINUOUS
 62
    3
 10
66.804322094420343
 20
-8.7573817467708608
 40
0.2883273372705684
 50
253.82044492986512
 51
270.19440022176184
  0
ARC
  8
_0-2_00
  6
CONTINUOUS
 62
    3
 10
66.805498291140694
 20
-8.7518240797030131
 40
0.2938834113875349
 50
269.9614121872537
 51
286.02374266099599
  0
ARC
  8
_0-2_00
  6
CONTINUOUS
 62
    3
 10
66.820255481635968
 20
-8.8042416894373616
 40
0.2394290215103845
 50
286.09201419326843
 51
304.41031901491772
  0
ARC
  8
_0-2_00
  6
CONTINUOUS
 62
    3
 10
66.861557780430189
 20
-8.8666580636559189
 40
0.164598563868354
 50
304.82719506769729
 51
328.31636526036425
  0
ARC
  8
_0-2_00
  6
CONTINUOUS
 62
    3
 10
66.902862825521709
 20
-8.8942992243022729
 40
0.1149461659667811
 50
329.22706684983547
 51
359.29805450796101
  0
ARC
  8
_0-2_00
  6
CONTINUOUS
 62
    3
 10
66.906836785139603
 20
-8.8959957924820117
 40
0.1109639548274258
 50
0.1488978140705604
 51
31.325980828046614
  0
ARC
  8
_0-2_00
  6
CONTINUOUS
 62
    3
 10
66.869637489199931
 20
-8.9171086427577393
 40
0.1537227035263482
 50
30.839546970853505
 51
56.016892700964213
  0
ARC
  8
_0-2_00
  6
CONTINUOUS
 62
    3
 10
66.825629761958396
 20
-8.9757786560009691
 40
0.2270001909211873
 50
55.083511467504735
 51
74.414155324222861
  0
ARC
  8
_0-2_00
  6
CONTINUOUS
 62
    3
 10
66.806278636114797
 20
-9.0340331021102287
 40
0.288327337270568
 50
73.820444929865118
 51
90.194400221761839
  0
ARC
  8
_0-2_00
  6
CONTINUOUS
 62
    3
 10
66.805102439394446
 20
-9.0395907691780764
 40
0.2938834113875347
 50
89.9614121872537
 51
106.02374266099599
  0
ARC
  8
_0-2_00
  6
CONTINUOUS
 62
    3
 10
66.790345248899172
 20
-8.9871731594437279
 40
0.2394290215103835
 50
106.0920141932683
 51
124.41031901491768
  0
ARC
  8
_0-2_00
  6
CONTINUOUS
 62
    3
 10
66.74904295010495
 20
-8.9247567852251706
 40
0.1645985638683532
 50
124.82719506769722
 51
148.31636526036431
  0
ARC
  8
_0-2_00
  6
CONTINUOUS
 62
    3
 10
66.707737905013431
 20
-8.8971156245788166
 40
0.1149461659667808
 50
149.2270668498355
 51
179.29805450796107
  0
ARC
  8
_0-2_00
  6
CONTINUOUS
 62
    3
 10
66.805300365267669
 20
-8.0082074244405419
 40
0.3624999999999998
 50
52.101017974585943
 51
133.60281897271003
  0
ARC
  8
_0-2_00
  6
CONTINUOUS
 62
    3
 10
66.805300365267556
 20
-8.6832074244405248
 40
0.3625000000000052
 50
226.39718102730279
 51
310.96571333002038
  0
ARC
  8
_0-2_00
  6
CONTINUOUS
 62
    3
 10
67.105300365255999
 20
-7.3957074244404879
 40
0.4
 50
300.54892908970362
 51
359.99999999997448
  0
ARC
  8
_0-2_00
  6
CONTINUOUS
 62
    3
 10
68.005300365267175
 20
-5.3207074244404424
 40
3.6249999999999578
 50
260.47271661855382
 51
279.52728338145891
  0
LINE
  8
_0-2_00
  6
CONTINUOUS
 62
    3
 10
68.755300365267559
 20
-8.8957074244403316
 11
68.605300365267539
 21
-8.89570742444036
  0
LINE
  8
_0-2_00
  6
CONTINUOUS
 62
    3
 10
67.405300365267593
 20
-8.8957074244404595
 11
67.206859825372788
 21
-8.8957074244404737
  0
LINE
  8
_0-2_00
  6
CONTINUOUS
 62
    3
 10
63.855300365277898
 20
-9.0598502673584278
 11
63.855300365277976
 21
-7.6315645816498545
  0
LINE
  8
_0-2_00
  6
CONTINUOUS
 62
    3
 10
63.264324985339357
 20
-9.7207074245038143
 11
63.055300365277873
 21
-9.7207074245038285
  0
LINE
  8
_0-2_00
  6
CONTINUOUS
 62
    3
 10
63.264324985339037
 20
-6.9707074245038143
 11
63.055300365278022
 21
-6.9707074245038427
  0
ARC
  8
_0-2_00
  6
CONTINUOUS
 62
    3
 10
63.264324985339087
 20
-7.4707074245038143
 40
0.5
 50
24.62431835217048
 51
89.999999999974577
  0
ARC
  8
_0-2_00
  6
CONTINUOUS
 62
    3
 10
63.264324985339307
 20
-9.2207074245038143
 40
0.5
 50
269.99999999997442
 51
335.37568164784238
  0
ARC
  8
_0-2_00
  6
CONTINUOUS
 62
    3
 10
61.355300365277948
 20
-8.3457074245040275
 40
2.6000000000000001
 50
15.942368605625502
 51
24.624318352170455
  0
ARC
  8
_0-2_00
  6
CONTINUOUS
 62
    3
 10
61.355300365277948
 20
-8.3457074245040275
 40
2.6000000000000001
 50
335.37568164784238
 51
344.05763139436851
  0
LINE
  8
_0-2_00
  6
CONTINUOUS
 62
    3
 10
66.55530036526757
 20
-8.8582074245034477
 11
63.855300365277913
 21
-8.8582074245037461
  0
LINE
  8
_0-2_00
  6
CONTINUOUS
 62
    3
 10
66.555300365267613
 20
-7.833207424503442
 11
63.855300365277976
 21
-7.8332074245037404
  0
LINE
  8
_0-2_00
  6
CONTINUOUS
 62
    3
 10
67.687800365266014
 20
-6.3457074244404481
 11
67.687800365266554
 21
4.1542925754350932
  0
ARC
  8
_0-2_00
  6
CONTINUOUS
 62
    3
 10
67.181541463225017
 20
-7.5248867377243016
 40
0.25
 50
232.10101797458611
 51
300.54892908970368
  0
ARC
  8
_0-2_00
  6
CONTINUOUS
 62
    3
 10
67.206859825372817
 20
-9.1457074244405021
 40
0.25
 50
89.999999999974577
 51
130.96571333002049
  0
LINE
  8
_0-2_00
  6
CONTINUOUS
 62
    3
 10
68.250249339576229
 20
4.729292575434684
 11
67.760351391019597
 21
4.7292925754354371
  0
LINE
  8
_0-2_00
  6
CONTINUOUS
 62
    3
 10
68.625739189651938
 20
4.078922387475302
 11
68.380792274935189
 21
3.6546618860290891
  0
LINE
  8
_0-2_00
  6
CONTINUOUS
 62
    3
 10
68.380792274935601
 20
4.6539232648406994
 11
68.625739189651995
 21
4.229662763394245
  0
LINE
  8
_0-2_00
  6
CONTINUOUS
 62
    3
 10
67.384861540942097
 20
4.2296627633947708
 11
67.629808455658875
 21
4.6539232648410405
  0
LINE
  8
_0-2_00
  6
CONTINUOUS
 62
    3
 10
67.62980845565842
 20
3.6546618860294302
 11
67.38486154094204
 21
4.0789223874758846
  0
ARC
  8
_0-2_00
  6
CONTINUOUS
 62
    3
 10
68.005300365297018
 20
4.1542925754350648
 40
0.625
 50
53.073712841073522
 51
66.926081934280049
  0
ARC
  8
_0-2_00
  6
CONTINUOUS
 62
    3
 10
68.005300365297018
 20
4.1542925754350648
 40
0.625
 50
353.07371284107268
 51
6.9262871588757262
  0
ARC
  8
_0-2_00
  6
CONTINUOUS
 62
    3
 10
68.005300365297018
 20
4.1542925754350648
 40
0.625
 50
305.2186382801969
 51
306.92628715887611
  0
ARC
  8
_0-2_00
  6
CONTINUOUS
 62
    3
 10
68.005300365297018
 20
4.1542925754350648
 40
0.625
 50
233.0737128410739
 51
234.78136171804408
  0
ARC
  8
_0-2_00
  6
CONTINUOUS
 62
    3
 10
68.005300365297018
 20
4.1542925754350648
 40
0.625
 50
173.07371284107421
 51
186.9262871588752
  0
ARC
  8
_0-2_00
  6
CONTINUOUS
 62
    3
 10
68.005300365297018
 20
4.1542925754350648
 40
0.625
 50
113.073918065542
 51
126.9262871588746
  0
ARC
  8
_0-2_00
  6
CONTINUOUS
 62
    3
 10
68.005300365297018
 20
4.1689858581947021
 40
0.55
 50
305.25894853493219
 51
234.49349147439978
  0
ARC
  8
_0-2_00
  6
CONTINUOUS
 62
    3
 10
68.005300365297018
 20
4.1542925754350648
 40
0.875
 50
293.72567415950493
 51
246.27432583873582
  0
ARC
  8
_0-2_00
  6
CONTINUOUS
 62
    3
 10
68.005300365297018
 20
4.1542925754350648
 40
0.3175000000000001
 50
0
 51
180
  0
ARC
  8
_0-2_00
  6
CONTINUOUS
 62
    3
 10
68.005300365297018
 20
4.1542925754351785
 40
0.625
 50
300.53070233544577
 51
306.92628715892636
  0
ARC
  8
_0-2_00
  6
CONTINUOUS
 62
    3
 10
68.005300365297018
 20
4.1542925754351785
 40
0.625
 50
233.0737128411254
 51
239.46929765806431
  0
LINE
  8
_0-2_00
  6
CONTINUOUS
 62
    3
 10
67.50530036530472
 20
-7.3957074244405874
 11
67.505300365304734
 21
-7.2957074244404936
  0
POINT
  8
_0-2_00
 62
    3
 10
68.005300365297018
 20
4.1542925754350648
  0
POINT
  8
_0-2_00
 62
    3
 10
62.455300365267597
 20
-8.3457074245334866
  0
LINE
  8
_0-6_025
  6
CONTINUOUS
 62
    3
 10
62.455300365267583
 20
-8.3457074245202989
 11
62.45530036526619
 21
-8.7772074245203129
  0
LINE
  8
_0-6_025
  6
CONTINUOUS
 62
    3
 10
63.055300365278633
 20
-8.8512074245227268
 11
62.505260413202173
 21
-8.8292058264378994
  0
LINE
  8
_0-6_025
  6
CONTINUOUS
 62
    3
 10
62.455300365266233
 20
-8.7772074245202987
 11
62.505260413202173
 21
-8.8292058264378994
  0
LINE
  8
_0-6_025
  6
CONTINUOUS
 62
    5
 10
62.455300365266197
 20
-8.7772074245203129
 11
63.055300365277937
 21
-8.8081305014459019
  0
LINE
  8
_0-6_025
  6
CONTINUOUS
 62
    3
 10
62.45530036526759
 20
-8.3457074245202847
 11
62.455300365268911
 21
-7.9142074245202991
  0
LINE
  8
_0-6_025
  6
CONTINUOUS
 62
    3
 10
63.055300365278001
 20
-7.8402074245218216
 11
62.505260413205193
 21
-7.8622090226030394
  0
LINE
  8
_0-6_025
  6
CONTINUOUS
 62
    3
 10
62.455300365268933
 20
-7.9142074245202991
 11
62.505260413205193
 21
-7.862209022603011
  0
LINE
  8
_0-6_025
  6
CONTINUOUS
 62
    5
 10
62.455300365268918
 20
-7.9142074245202991
 11
63.055300365277994
 21
-7.8832843475986039
  0
POINT
  8
_0-2_00
 62
    3
 10
62.455300365267597
 20
-8.3457074245334866
  0
LINE
  8
_0-2_00
  6
CENTER
 62
    3
 10
68.005300365307818
 20
2.6947505234455491
 11
68.005300365307818
 21
5.2273635222152421
  0
LINE
  8
_0-2_00
  6
CENTER
 62
    3
 10
69.207659314128321
 20
4.1542925754350648
 11
66.82679644223515
 21
4.1542925754350648
  0
POINT
  8
_0-2_00
 62
    3
 10
63.055300365278313
 20
-8.3457074245336003
  0
POINT
  8
_0-2_00
 62
    3
 10
63.055300365278313
 20
-8.3457074245336003
  0
POINT
  8
_0-2_00
 62
    3
 10
69.605300365267581
 20
-8.2957074244399536
  0
POINT
  8
_0-2_00
 62
    3
 10
62.455300365255823
 20
56.202401083034403
  0
LINE
  8
_0-6_025
  6
CONTINUOUS
 62
    3
 10
62.455300365255788
 20
56.20240108304759
 11
62.455300365254402
 21
55.77090108304759
  0
LINE
  8
_0-6_025
  6
CONTINUOUS
 62
    3
 10
63.055300365266838
 20
55.696901083045105
 11
62.505260413190378
 21
55.718902681130004
  0
LINE
  8
_0-6_025
  6
CONTINUOUS
 62
    3
 10
62.455300365254438
 20
55.77090108304759
 11
62.505260413190392
 21
55.718902681130004
  0
LINE
  8
_0-6_025
  6
CONTINUOUS
 62
    5
 10
62.455300365254409
 20
55.77090108304759
 11
63.055300365266142
 21
55.739978006121987
  0
LINE
  8
_0-6_025
  6
CONTINUOUS
 62
    3
 10
62.455300365255802
 20
56.20240108304759
 11
62.455300365257123
 21
56.63390108304759
  0
LINE
  8
_0-6_025
  6
CONTINUOUS
 62
    3
 10
63.055300365266213
 20
56.707901083046096
 11
62.505260413193398
 21
56.685899484964807
  0
LINE
  8
_0-6_025
  6
CONTINUOUS
 62
    3
 10
62.455300365257152
 20
56.63390108304759
 11
62.505260413193412
 21
56.685899484964892
  0
LINE
  8
_0-6_025
  6
CONTINUOUS
 62
    5
 10
62.455300365257123
 20
56.63390108304759
 11
63.055300365266199
 21
56.664824159969299
  0
POINT
  8
_0-2_00
 62
    3
 10
62.455300365255823
 20
56.202401083034403
  0
POINT
  8
_0-2_00
 62
    3
 10
63.055300365266532
 20
56.202401083034289
  0
POINT
  8
_0-2_00
 62
    3
 10
63.055300365266532
 20
56.202401083034289
  0
INSERT
  2
-030-M7
  8
_0-2_00
 10
62.455300365255823
 20
56.202401083034403
 41
1
 42
1
 50
0
  0
LINE
  8
_0-2_00
  6
CONTINUOUS
 62
    3
 10
194.0099122599668
 20
-6.3457074244949325
 11
193.10991225996679
 21
-6.345707424494293
  0
LINE
  8
_0-2_00
  6
CONTINUOUS
 62
    3
 10
194.134912259966
 20
-7.2957074244950206
 11
192.98491225996599
 21
-7.2957074244942106
  0
LINE
  8
_0-2_00
  6
CONTINUOUS
 62
    3
 10
194.19741225996609
 20
-7.1957074244950547
 11
194.19741225996651
 21
-6.7457074244950377
  0
LINE
  8
_0-2_00
  6
CONTINUOUS
 62
    3
 10
192.92241225996611
 20
-7.1957074244941595
 11
192.92241225996651
 21
-6.7457074244941708
  0
LINE
  8
_0-2_00
  6
CONTINUOUS
 62
    3
 10
194.0099122599668
 20
-6.3457074244949325
 11
194.19741225996651
 21
-6.7457074244950661
  0
LINE
  8
_0-2_00
  6
CONTINUOUS
 62
    3
 10
193.10991225996679
 20
-6.345707424494293
 11
192.92241225996651
 21
-6.745707424494185
  0
LINE
  8
_0-2_00
  6
CONTINUOUS
 62
    3
 10
194.19741225996609
 20
-7.1957074244950547
 11
194.134912259966
 21
-7.2957074244950206
  0
LINE
  8
_0-2_00
  6
CONTINUOUS
 62
    3
 10
192.92241225996599
 20
-7.1957074244941737
 11
192.98491225996591
 21
-7.2957074244942248
  0
LINE
  8
_0-2_00
  6
CONTINUOUS
 62
    3
 10
193.85991225996611
 20
-7.1957074244948132
 11
193.85991225996651
 21
-6.7457074244948103
  0
LINE
  8
_0-2_00
  6
CONTINUOUS
 62
    3
 10
193.25991225996609
 20
-7.195707424494401
 11
193.25991225996651
 21
-6.7457074244944124
  0
LINE
  8
_0-2_00
  6
CONTINUOUS
 62
    3
 10
194.00991225996671
 20
-6.5707074244949411
 11
193.10991225996659
 21
-6.5707074244943016
  0
ARC
  8
_0-2_00
  6
CONTINUOUS
 62
    3
 10
193.55991225996641
 20
-6.9153502816374584
 40
0.3446428571428544
 50
29.487125672903947
 51
150.51287432701571
  0
ARC
  8
_0-2_00
  6
CONTINUOUS
 62
    3
 10
193.55991225996661
 20
-6.3207074244945858
 40
0.9250000000000235
 50
251.07535558390913
 51
288.92464441601072
  0
ARC
  8
_0-2_00
  6
CONTINUOUS
 62
    3
 10
192.90775729527655
 20
-6.7455171260015305
 40
0.2646550331064088
 50
359.95880183610683
 51
14.615185898799213
  0
ARC
  8
_0-2_00
  6
CONTINUOUS
 62
    3
 10
192.96316121929732
 20
-6.7313171452909586
 40
0.2074609672102291
 50
14.681285647396299
 51
31.809959893104409
  0
ARC
  8
_0-2_00
  6
CONTINUOUS
 62
    3
 10
193.0291539120206
 20
-6.6915664726442969
 40
0.1304314565602658
 50
32.251358943152425
 51
55.535681718487524
  0
ARC
  8
_0-2_00
  6
CONTINUOUS
 62
    3
 10
193.05841732482656
 20
-6.6517682462242362
 40
0.0810746054607071
 50
56.670390320511586
 51
88.943462899576474
  0
ARC
  8
_0-2_00
  6
CONTINUOUS
 62
    3
 10
193.0602194249642
 20
-6.6479295381024741
 40
0.0772227245081009
 50
90.227903178661691
 51
124.15824360102994
  0
ARC
  8
_0-2_00
  6
CONTINUOUS
 62
    3
 10
193.08258270662321
 20
-6.6837850728517623
 40
0.1194604436523076
 50
123.37797603810732
 51
148.83498329992429
  0
ARC
  8
_0-2_00
  6
CONTINUOUS
 62
    3
 10
193.1389305399544
 20
-6.7229976269572376
 40
0.1880201895994134
 50
147.49612842256039
 51
162.38994214020744
  0
ARC
  8
_0-2_00
  6
CONTINUOUS
 62
    3
 10
193.97127165169584
 20
-6.7274962446775675
 40
0.1985573641656346
 50
18.00731894249996
 51
32.106610494465713
  0
ARC
  8
_0-2_00
  6
CONTINUOUS
 62
    3
 10
194.0291539120206
 20
-6.6915664726449791
 40
0.1304314565602658
 50
32.251358943152425
 51
55.535681718487524
  0
ARC
  8
_0-2_00
  6
CONTINUOUS
 62
    3
 10
194.05841732482656
 20
-6.6517682462249184
 40
0.0810746054607071
 50
56.670390320511586
 51
88.943462899576474
  0
ARC
  8
_0-2_00
  6
CONTINUOUS
 62
    3
 10
194.0602194249642
 20
-6.6479295381031562
 40
0.0772227245081009
 50
90.227903178661691
 51
124.15824360102994
  0
ARC
  8
_0-2_00
  6
CONTINUOUS
 62
    3
 10
194.08258270662321
 20
-6.6837850728524444
 40
0.1194604436523076
 50
123.37797603810732
 51
148.83498329992429
  0
ARC
  8
_0-2_00
  6
CONTINUOUS
 62
    3
 10
194.1446233673484
 20
-6.7261454712906641
 40
0.1945131999780316
 50
147.61522720512772
 51
165.89352725393212
  0
ARC
  8
_0-2_00
  6
CONTINUOUS
 62
    3
 10
194.20619500104095
 20
-6.7447662316371435
 40
0.2587844526280258
 50
165.21762842743715
 51
180.20838383755805
  0
ARC
  8
_0-2_00
  6
CONTINUOUS
 62
    3
 10
192.97398155226847
 20
-7.1952996695167712
 40
0.0265724209956746
 50
180.87924078301836
 51
227.34283440939853
  0
ARC
  8
_0-2_00
  6
CONTINUOUS
 62
    3
 10
193.00559848019299
 20
-7.1666810475555565
 40
0.0691509044080834
 50
224.14333959346402
 51
248.59628590952812
  0
ARC
  8
_0-2_00
  6
CONTINUOUS
 62
    3
 10
193.04275479251098
 20
-7.0878357975090154
 40
0.1562265378706091
 50
246.46125876155779
 51
260.45924207860935
  0
ARC
  8
_0-2_00
  6
CONTINUOUS
 62
    3
 10
193.05908686147029
 20
-7.0096499159980112
 40
0.2360589515357003
 50
259.69540549327428
 51
270.20033956043545
  0
ARC
  8
_0-2_00
  6
CONTINUOUS
 62
    3
 10
193.06007886887249
 20
-7.0021980084245712
 40
0.2435094730665028
 50
269.96079828929749
 51
280.1434566567367
  0
ARC
  8
_0-2_00
  6
CONTINUOUS
 62
    3
 10
193.0725343625607
 20
-7.0725635778391336
 40
0.172050196512941
 50
280.18725036507334
 51
292.89224879437501
  0
ARC
  8
_0-2_00
  6
CONTINUOUS
 62
    3
 10
193.10739550747866
 20
-7.1564120121358599
 40
0.0812464156875706
 50
293.24596427279312
 51
314.0144102239833
  0
ARC
  8
_0-2_00
  6
CONTINUOUS
 62
    3
 10
193.14241545717044
 20
-7.1937656775074572
 40
0.030059583485546
 50
315.4816163387876
 51
356.2963084683384
  0
ARC
  8
_0-2_00
  6
CONTINUOUS
 62
    3
 10
193.97398155226847
 20
-7.1952996695174676
 40
0.0265724209956746
 50
180.87924078301836
 51
227.34283440939853
  0
ARC
  8
_0-2_00
  6
CONTINUOUS
 62
    3
 10
194.00559848019299
 20
-7.1666810475562528
 40
0.0691509044080834
 50
224.14333959346402
 51
248.59628590952812
  0
ARC
  8
_0-2_00
  6
CONTINUOUS
 62
    3
 10
194.04275479251098
 20
-7.0878357975097117
 40
0.1562265378706091
 50
246.46125876155779
 51
260.45924207860935
  0
ARC
  8
_0-2_00
  6
CONTINUOUS
 62
    3
 10
194.05908686147029
 20
-7.0096499159987076
 40
0.2360589515357003
 50
259.69540549327428
 51
270.20033956043545
  0
ARC
  8
_0-2_00
  6
CONTINUOUS
 62
    3
 10
194.06007886887249
 20
-7.0021980084252675
 40
0.2435094730665028
 50
269.96079828929749
 51
280.1434566567367
  0
ARC
  8
_0-2_00
  6
CONTINUOUS
 62
    3
 10
194.0725343625607
 20
-7.0725635778398299
 40
0.172050196512941
 50
280.18725036507334
 51
292.89224879437501
  0
ARC
  8
_0-2_00
  6
CONTINUOUS
 62
    3
 10
194.10739550747866
 20
-7.1564120121365562
 40
0.0812464156875706
 50
293.24596427279312
 51
314.0144102239833
  0
ARC
  8
_0-2_00
  6
CONTINUOUS
 62
    3
 10
194.14241545717044
 20
-7.1937656775081535
 40
0.030059583485546
 50
315.4816163387876
 51
356.2963084683384
  0
LINE
  8
_0-2_00
  6
CONTINUOUS
 62
    3
 10
193.17241225996651
 20
-6.7457074244941566
 11
193.17241225996631
 21
-7.19570742449433
  0
LINE
  8
_0-2_00
  6
CONTINUOUS
 62
    3
 10
193.94741225996651
 20
-6.745707424494924
 11
193.94741225996609
 21
-7.1957074244948274
  0
CIRCLE
  8
_0-2_00
  6
CONTINUOUS
 62
    3
 10
193.55991225994109
 20
-8.3457074245149272
 40
0.25
  0
LINE
  8
_0-2_00
  6
CONTINUOUS
 62
    3
 10
193.80486123421889
 20
-8.3957074245151091
 11
193.3149632856628
 21
-8.395707424514768
  0
LINE
  8
_0-2_00
  6
CONTINUOUS
 62
    3
 10
193.80486123422
 20
-8.2957074245151148
 11
193.31496328566291
 21
-8.2957074245147737
  0
LINE
  8
_0-2_00
  6
CONTINUOUS
 62
    3
 10
193.78595152644101
 20
-9.008207424515092
 11
193.33387299344031
 21
-9.0082074245147794
  0
LINE
  8
_0-2_00
  6
CONTINUOUS
 62
    3
 10
193.78595152644189
 20
-7.683207424515075
 11
193.3338729934413
 21
-7.6832074245147624
  0
LINE
  8
_0-2_00
  6
CONTINUOUS
 62
    3
 10
193.09919006309951
 20
-8.8727131714830421
 11
192.8731507967052
 21
-8.4812016775804295
  0
LINE
  8
_0-2_00
  6
CONTINUOUS
 62
    3
 10
194.2466737232202
 20
-8.210213171667192
 11
194.02063445661611
 21
-7.8187016774010374
  0
LINE
  8
_0-2_00
  6
CONTINUOUS
 62
    3
 10
194.24667372321929
 20
-8.4812016773672383
 11
194.0206344566177
 21
-8.8727131716273107
  0
LINE
  8
_0-2_00
  6
CONTINUOUS
 62
    3
 10
193.09919006310261
 20
-7.818701677544567
 11
192.87315079670441
 21
-8.2102131714522528
  0
ARC
  8
_0-2_00
  6
CONTINUOUS
 62
    3
 10
193.55991225994109
 20
-8.3457074245149272
 40
0.6999999999999999
 50
48.839196979615522
 51
71.16080302926899
  0
ARC
  8
_0-2_00
  6
CONTINUOUS
 62
    3
 10
193.55991225994109
 20
-8.3457074245149272
 40
0.6999999999999999
 50
348.83919697949977
 51
11.160803020112708
  0
ARC
  8
_0-2_00
  6
CONTINUOUS
 62
    3
 10
193.55991225994109
 20
-8.3457074245149272
 40
0.6999999999999999
 50
288.83919697065119
 51
311.16080302056457
  0
ARC
  8
_0-2_00
  6
CONTINUOUS
 62
    3
 10
193.55991225994109
 20
-8.3457074245149272
 40
0.6999999999999999
 50
228.83919696149309
 51
251.16080302926849
  0
ARC
  8
_0-2_00
  6
CONTINUOUS
 62
    3
 10
193.55991225994109
 20
-8.3457074245149272
 40
0.6999999999999999
 50
168.83919696194971
 51
191.16080303823429
  0
ARC
  8
_0-2_00
  6
CONTINUOUS
 62
    3
 10
193.55991225994109
 20
-8.3457074245149272
 40
0.6999999999999999
 50
108.8391969706507
 51
131.1608030381141
  0
CIRCLE
  8
_0-2_00
  6
CONTINUOUS
 62
    3
 10
193.55991225994109
 20
-8.3457074245149272
 40
0.625
  0
LINE
  8
_0-2_00
  6
CONTINUOUS
 62
    3
 10
193.0349122599456
 20
-7.2957074244942675
 11
192.95991225994231
 21
-8.059937908984935
  0
LINE
  8
_0-2_00
  6
CONTINUOUS
 62
    3
 10
194.0849122599457
 20
-7.295707424494978
 11
194.15991225994239
 21
-8.0599379091301557
  0
ARC
  8
_0-2_00
  6
CONTINUOUS
 62
    3
 10
193.55991225994109
 20
-8.3457074245149272
 40
1.375
 50
117.622005490991
 51
62.377994506654773
  0
POINT
  8
_0-2_00
 62
    3
 10
193.55991225994109
 20
-8.3457074245149272
  0
POINT
  8
_0-2_00
 62
    3
 10
193.55991225994109
 20
-8.3457074245149272
  0
POINT
  8
_0-2_00
 62
    3
 10
206.3099122599248
 20
-31.845707424514927
  0
POINT
  8
_0-2_00
 62
    3
 10
206.3099122599248
 20
-31.845707424514927
  0
POINT
  8
_0-2_00
 62
    3
 10
206.3099122599248
 20
-31.845707424514927
  0
INSERT
  2
-031-_D23
  8
_0-2_00
 10
0
 20
-74.25
 41
1
 42
1
 50
0
  0
LINE
  8
_0-2_00
  6
CENTER
 62
    3
 10
196.89241040741959
 20
4.1542925754350648
 11
198.19340260437841
 21
4.1542925754350648
  0
POINT
  8
_0-2_00
 62
    3
 10
197.50053811206519
 20
4.1542925754350648
  0
INSERT
  2
-032-_D24
  8
_0-2_00
 10
0
 20
-74.25
 41
1
 42
1
 50
0
  0
LINE
  8
_0-2_00
  6
CENTER
 62
    3
 10
90.116552559028378
 20
73.202401083087011
 11
89.504746706890785
 21
73.202401083087011
  0
LINE
  8
_0-2_00
  6
CENTER
 62
    3
 10
89.805300365272188
 20
73.486299011941696
 11
89.805300365272188
 21
72.883122727963411
  0
POINT
  8
_0-2_00
 62
    3
 10
89.805300365272188
 20
73.202401083087011
  0
POINT
  8
_0-2_00
 62
    3
 10
84.805300365272188
 20
73.202401083087011
  0
POINT
  8
_0-2_00
 62
    3
 10
84.805300365272188
 20
64.702401083087011
  0
POINT
  8
_0-2_00
 62
    3
 10
89.805300365281937
 20
64.702401083087011
  0
CIRCLE
  8
_0-2_00
  6
DASHED
 62
    3
 10
84.805300365281937
 20
73.202401083111795
 40
0.2
  0
LINE
  8
_0-2_00
  6
CENTER
 62
    3
 10
85.116552559028378
 20
73.202401083087011
 11
84.504746706890785
 21
73.202401083087011
  0
LINE
  8
_0-2_00
  6
CENTER
 62
    3
 10
84.805300365272188
 20
73.486299011941696
 11
84.805300365272188
 21
72.883122727963411
  0
POINT
  8
_0-2_00
 62
    3
 10
84.805300365272188
 20
73.202401083087011
  0
CIRCLE
  8
_0-2_00
  6
DASHED
 62
    3
 10
89.805300365291686
 20
64.702401083111795
 40
0.2
  0
LINE
  8
_0-2_00
  6
CENTER
 62
    3
 10
90.116552559038126
 20
64.702401083087011
 11
89.504746706900534
 21
64.702401083087011
  0
LINE
  8
_0-2_00
  6
CENTER
 62
    3
 10
89.805300365281937
 20
64.986299011941696
 11
89.805300365281937
 21
64.383122727963411
  0
POINT
  8
_0-2_00
 62
    3
 10
89.805300365281937
 20
64.702401083087011
  0
POINT
  8
_0-2_00
 62
    3
 10
84.805300365281937
 20
64.702401083087011
  0
CIRCLE
  8
_0-2_00
  6
DASHED
 62
    3
 10
84.805300365291686
 20
64.702401083111795
 40
0.2
  0
LINE
  8
_0-2_00
  6
CENTER
 62
    3
 10
85.116552559038126
 20
64.702401083087011
 11
84.504746706900534
 21
64.702401083087011
  0
LINE
  8
_0-2_00
  6
CENTER
 62
    3
 10
84.805300365281937
 20
64.986299011941696
 11
84.805300365281937
 21
64.383122727963411
  0
POINT
  8
_0-2_00
 62
    3
 10
84.805300365281937
 20
64.702401083087011
  0
POINT
  8
_0-2_00
 62
    3
 10
78.055300365281937
 20
72.452401083111795
  0
POINT
  8
_0-2_00
 62
    3
 10
78.055300365281937
 20
65.452401083111795
  0
CIRCLE
  8
_0-2_00
  6
CONTINUOUS
 62
    3
 10
78.055300365281937
 20
65.452401083111795
 40
0.4
  0
LINE
  8
_0-2_00
  6
CENTER
 62
    3
 10
78.72044502333523
 20
65.452401083111795
 11
77.46703896112632
 21
65.452401083111795
  0
LINE
  8
_0-2_00
  6
CENTER
 62
    3
 10
78.055300365281937
 20
66.186474646058997
 11
78.055300365281937
 21
64.70357188417691
  0
POINT
  8
_0-2_00
 62
    3
 10
78.055300365281937
 20
65.452401083111795
  0
POINT
  8
_0-2_00
 62
    3
 10
87.305300365281937
 20
68.952401083111795
  0
TEXT
  8
_0-2_00
 62
    7
 10
116.3882816485846
 20
39.793071125996306
 40
2
 41
1
 50
0
  1
(4箇所）
  0
INSERT
  2
-033-M8
  8
_0-2_00
 10
69.605300365267581
 20
-8.2957074244399536
 41
1
 42
1
 50
0
  0
LINE
  8
_0-2_00
  6
CONTINUOUS
 62
    3
 10
90.319050365276382
 20
-32.66146571680973
 11
84.291550365276521
 21
-32.661465716845882
  0
LINE
  8
_0-2_00
  6
CONTINUOUS
 62
    3
 10
84.291550365282035
 20
-35.172980916473875
 11
84.291550365276464
 21
-32.661465716822988
  0
LINE
  8
_0-2_00
  6
CONTINUOUS
 62
    3
 10
84.291550365276436
 20
-32.661465716823088
 11
90.319050365276496
 21
-32.661465716832538
  0
ARC
  8
_0-2_00
  6
CONTINUOUS
 62
    3
 10
84.541550365282006
 20
-35.172980916473364
 40
0.25
 50
180
 51
238.56056107207968
  0
LINE
  8
_0-2_00
  6
CONTINUOUS
 62
    3
 10
90.319050365281981
 20
-35.172980916460574
 11
90.319050365276411
 21
-32.661465716809701
  0
LINE
  8
_0-2_00
  6
CONTINUOUS
 62
    3
 10
90.319050365276468
 20
-32.661465716809687
 11
84.291550365276407
 21
-32.661465716845868
  0
ARC
  8
_0-2_00
  6
CONTINUOUS
 62
    3
 10
90.069050365282067
 20
-35.172980916461128
 40
0.25
 50
301.43943892817458
 51
0.0000000002539482
  0
ARC
  8
_0-2_00
  6
CONTINUOUS
 62
    3
 10
90.225529477520382
 20
-35.428938505590821
 40
0.05
 50
121.43943892817379
 51
206.91576456279446
  0
ARC
  8
_0-2_00
  6
CONTINUOUS
 62
    3
 10
87.305300365285888
 20
-36.911465716827763
 40
3.2250000000000001
 50
8.0639022290401563
 51
26.915764562795079
  0
LINE
  8
_0-2_00
  6
CONTINUOUS
 62
    3
 10
84.637822654954277
 20
-35.41146571682782
 11
90.180945826951842
 21
-35.41146571682782
  0
LINE
  8
_0-2_00
  6
CENTER
 62
    3
 10
87.305300365275315
 20
-32.161001222170498
 11
87.305300365294613
 21
-40.84570742452415
  0
LINE
  8
_0-2_00
  6
CONTINUOUS
 62
    3
 10
84.291550365276549
 20
-32.661465716808209
 11
90.319050365276496
 21
-32.661465716808209
  0
LINE
  8
_0-2_00
  6
CONTINUOUS
 62
    3
 10
84.291550365276549
 20
-32.661465716827763
 11
90.319050365276496
 21
-32.661465716827763
  0
LINE
  8
_0-2_00
  6
CONTINUOUS
 62
    3
 10
84.319029271350104
 20
-38.161902122057086
 11
89.683802837387617
 21
-39.10785644714106
  0
ARC
  8
_0-2_00
  6
CENTER
 62
    3
 10
82.077377289307776
 20
-37.766638396264497
 40
5
 50
294.99999999980184
 51
350.00000000000006
  0
LINE
  8
_0-2_00
  6
CENTER
 62
    3
 10
73.54528647196372
 20
-47.262107279266075
 11
87.305300365298763
 21
-40.845707424522203
  0
ARC
  8
_0-2_00
  6
CONTINUOUS
 62
    3
 10
82.077377289307776
 20
-37.766638396264497
 40
2.1499999999999999
 50
305.9834070835999
 51
347.90018753257658
  0
ARC
  8
_0-2_00
  6
CONTINUOUS
 62
    3
 10
82.077377289307776
 20
-37.766638396264497
 40
7.8500000000000014
 50
297.96714683208262
 51
349.40376711942309
  0
ARC
  8
_0-2_00
  6
CONTINUOUS
 62
    3
 10
87.305300365285888
 20
-36.911465716827763
 40
3.3875000000000002
 50
159.61931328228459
 51
202.67413288771638
  0
ARC
  8
_0-2_00
  6
CONTINUOUS
 62
    3
 10
87.305300365285888
 20
-36.911465716827763
 40
3.3875000000000002
 50
317.26736621211796
 51
0.3806867183094758
  0
LINE
  8
_0-2_00
  6
CENTER
 62
    3
 10
87.001416054368804
 20
-38.634879284599151
 11
87.305300365286058
 21
-36.91146571682782
  0
LINE
  8
_0-2_00
  6
CONTINUOUS
 62
    3
 10
84.294777195093474
 20
-35.720601958149047
 11
90.535016205548061
 21
-36.820924461761678
  0
LINE
  8
_0-2_00
  6
CONTINUOUS
 62
    3
 10
90.712818471978551
 20
-36.81296190260187
 11
90.878448893865993
 21
-36.52608159660943
  0
LINE
  8
_0-2_00
  6
CONTINUOUS
 62
    3
 10
84.079448192017594
 20
-35.327234331017721
 11
84.136971033879121
 21
-35.653462578277953
  0
ARC
  8
_0-2_00
  6
CONTINUOUS
 62
    3
 10
83.989249870927409
 20
-35.679509804928117
 40
0.1499999999999999
 50
339.61931328228485
 51
10.000000000055438
  0
ARC
  8
_0-2_00
  6
CONTINUOUS
 62
    3
 10
90.842722282546674
 20
-36.887961902601063
 40
0.1499999999999999
 50
150.00000000037551
 51
180.38068671830899
  0
LINE
  8
_0-2_00
  6
CONTINUOUS
 62
    3
 10
83.079206942406302
 20
-39.671740082644106
 11
85.488131034316751
 21
-44.837694468758386
  0
LINE
  8
_0-2_00
  6
CONTINUOUS
 62
    3
 10
83.336513789416472
 20
-39.51367592180577
 11
85.755652280453944
 21
-44.701535157536924
  0
LINE
  8
_0-2_00
  6
CONTINUOUS
 62
    3
 10
83.33107274817084
 20
-39.516213121006984
 11
83.144560793634525
 21
-39.789555393933767
  0
ARC
  8
_0-2_00
  6
CONTINUOUS
 62
    3
 10
83.364113838047444
 20
-39.538758328474913
 40
0.04
 50
125.98340708360028
 51
145.69277699668629
  0
ARC
  8
_0-2_00
  6
CONTINUOUS
 62
    3
 10
83.111519703758034
 20
-39.767010186465868
 40
0.04
 50
294.99999999987148
 51
325.69277699668618
  0
LINE
  8
_0-2_00
  6
CONTINUOUS
 62
    3
 10
85.75214543641377
 20
-44.701634733524159
 11
85.432065965934669
 21
-44.710723312565065
  0
ARC
  8
_0-2_00
  6
CONTINUOUS
 62
    3
 10
85.751719686645004
 20
-44.686640776837038
 40
0.0149999999999999
 50
271.6264627576424
 51
297.96714683208251
  0
ARC
  8
_0-2_00
  6
CONTINUOUS
 62
    3
 10
85.432491715703065
 20
-44.725717269252144
 40
0.0149999999999999
 50
91.626462757642429
 51
114.9999999998725
  0
LINE
  8
_0-2_00
  6
CONTINUOUS
 62
    3
 10
90.498412315154411
 20
-36.45907089412654
 11
90.878448893866022
 21
-36.526081596609515
  0
LINE
  8
_0-2_00
  6
CONTINUOUS
 62
    3
 10
84.079448192017708
 20
-35.327234331017848
 11
84.411368683042951
 21
-35.385760869035593
  0
LINE
  8
_0-2_00
  6
CONTINUOUS
 62
    3
 10
84.415566459574563
 20
-35.386501050296999
 11
90.481922346650123
 21
-36.456163267768048
  0
POINT
  8
_0-a_20
 62
    3
 10
287.00002296857042
 20
110.75000000000011
  0
LINE
  8
_0-a_20
  6
CONTINUOUS
 62
    3
 10
168.36561891394709
 20
48.125649471475199
 11
168.6989522472808
 21
48.510549650934607
  0
LINE
  8
_0-a_20
  6
CONTINUOUS
 62
    3
 10
172.19895224728231
 20
50.338825503364205
 11
171.86561891394859
 21
49.953925323904798
  0
LINE
  8
_0-a_20
  6
CONTINUOUS
 62
    3
 10
176.8822742345312
 20
61.878804640278901
 11
176.88227423459961
 21
89.123948904056192
  0
LINE
  8
_0-a_20
  6
CONTINUOUS
 62
    3
 10
148.9581700849746
 20
45.756815592671799
 11
176.88227423453111
 21
61.878804640278901
  0
LINE
  8
_0-a_20
  6
CENTER
 62
    3
 10
164.54669814920129
 20
54.756856466812707
 11
185.7637725045339
 21
42.507172876306001
  0
LINE
  8
_0-a_20
  6
CENTER
 62
    3
 10
164.54669814913439
 20
54.756856466812792
 11
164.54669814913439
 21
77.181057084450913
  0
LINE
  8
_0-a_20
  6
CENTER
 62
    3
 10
174.07667185998429
 20
78.349297788668594
 11
171.65202761481461
 21
76.949428781036602
  0
LINE
  8
_0-a_20
  6
CONTINUOUS
 62
    3
 10
153.99643973314591
 20
66.755970364889293
 11
148.95817008498159
 21
63.847124027283996
  0
LINE
  8
_0-a_20
  6
CENTER
 62
    3
 10
157.42567189561859
 20
68.735838477006013
 11
154.73807847857901
 21
67.184155694212393
  0
LINE
  8
_0-a_20
  6
CONTINUOUS
 62
    3
 10
149.4031159261533
 20
64.104013628458091
 11
149.23644925948491
 21
63.430438314403602
  0
LINE
  8
_0-a_20
  6
CONTINUOUS
 62
    3
 10
149.4031159261533
 20
64.104013628458205
 11
149.56978259281871
 21
63.622888404132993
  0
LINE
  8
_0-a_20
  6
CONTINUOUS
 62
    3
 10
149.403115926103
 20
46.013705193821806
 11
149.5697825927713
 21
46.687280507877105
  0
LINE
  8
_0-a_20
  6
CONTINUOUS
 62
    3
 10
149.403115926103
 20
46.013705193821806
 11
149.23644925943751
 21
46.494830418147103
  0
LINE
  8
_0-a_20
  6
CONTINUOUS
 62
    3
 10
156.1579295730489
 20
61.27925919753261
 11
172.88003148246781
 21
70.933769236288896
  0
LINE
  8
_0-a_20
  6
CONTINUOUS
 62
    3
 10
172.88003148246781
 20
70.741319146559391
 11
172.88003148246781
 21
75.618938906687987
  0
LINE
  8
_0-a_20
  6
CENTER
 62
    3
 10
172.88003148246781
 20
75.618938906687987
 11
172.88003148246781
 21
79.192718382985788
  0
LINE
  8
_0-a_20
  6
CONTINUOUS
 62
    3
 10
156.1579295730489
 20
61.086809107802992
 11
156.1579295730489
 21
65.964428867914592
  0
LINE
  8
_0-a_20
  6
CENTER
 62
    3
 10
156.1579295730489
 20
66.194083239075809
 11
156.1579295730489
 21
69.687670969320408
  0
LINE
  8
_0-a_20
  6
CONTINUOUS
 62
    3
 10
156.15792957304879
 20
61.27925919753261
 11
156.65792957304879
 21
61.760384421855093
  0
LINE
  8
_0-a_20
  6
CONTINUOUS
 62
    3
 10
156.1579295730489
 20
61.27925919753261
 11
156.65792957304879
 21
61.375484242395999
  0
LINE
  8
_0-a_20
  6
CONTINUOUS
 62
    3
 10
172.88003148246781
 20
70.93376923628901
 11
172.38003148246781
 21
70.837544191425593
  0
LINE
  8
_0-a_20
  6
CONTINUOUS
 62
    3
 10
172.88003148246781
 20
70.933769236288896
 11
172.38003148246781
 21
70.452644011966498
  0
LINE
  8
_0-a_20
  6
CONTINUOUS
 62
    3
 10
165.56978259268769
 20
36.679875841870199
 11
149.40311592607489
 21
46.013705193773205
  0
LINE
  8
_0-a_20
  6
CONTINUOUS
 62
    3
 10
165.1248367516155
 20
36.422986240752607
 11
177.60613037718861
 21
43.629064475303693
  0
LINE
  8
_0-a_20
  6
CENTER
 62
    3
 10
178.59595811068959
 20
44.200541783691193
 11
183.23476003745029
 21
46.878755324820702
  0
LINE
  8
_0-a_20
  6
CONTINUOUS
 62
    3
 10
165.56978259268769
 20
36.6798758418701
 11
165.23644925935511
 21
37.064776021330403
  0
LINE
  8
_0-a_20
  6
CONTINUOUS
 62
    3
 10
164.5466981491345
 20
66.122516993073503
 11
164.0466981491345
 21
66.026291948210087
  0
LINE
  8
_0-a_20
  6
CONTINUOUS
 62
    3
 10
164.54669814913439
 20
66.122516993073503
 11
164.0466981491345
 21
65.641391768750992
  0
LINE
  8
_0-a_20
  6
CONTINUOUS
 62
    3
 10
164.54669814913439
 20
66.12251699307339
 11
165.04669814913439
 21
66.603642217395901
  0
LINE
  8
_0-a_20
  6
CONTINUOUS
 62
    3
 10
164.54669814913439
 20
66.122516993073503
 11
165.04669814913439
 21
66.218742037936806
  0
LINE
  8
_0-a_20
  6
CENTER
 62
    3
 10
162.63003148253009
 20
51.437092418975098
 11
164.11603207099901
 21
50.5791495792039
  0
LINE
  8
_0-a_20
  6
CONTINUOUS
 62
    3
 10
164.7292671437107
 20
50.225098144896094
 11
168.7099104227942
 21
47.926872676162006
  0
LINE
  8
_0-a_20
  6
CONTINUOUS
 62
    3
 10
168.36561891394709
 20
48.125649471475199
 11
172.19895224728231
 21
50.338825503364106
  0
LINE
  8
_0-a_20
  6
CONTINUOUS
 62
    3
 10
168.36561891394709
 20
48.125649471475199
 11
168.6989522472808
 21
48.510549650934493
  0
LINE
  8
_0-a_20
  6
CONTINUOUS
 62
    3
 10
168.365618913947
 20
48.125649471475199
 11
169.0322855806138
 21
48.318099561204207
  0
LINE
  8
_0-a_20
  6
CONTINUOUS
 62
    3
 10
172.19895224728231
 20
50.338825503364106
 11
171.53228558061551
 21
50.146375413635099
  0
LINE
  8
_0-a_20
  6
CONTINUOUS
 62
    3
 10
172.19895224728239
 20
50.338825503364205
 11
171.86561891394871
 21
49.953925323904798
  0
TEXT
  8
_0-a_20
 62
    7
 10
156.89044151491129
 20
42.549682524318897
 40
2
 41
1
 50
-29.999999999999847
  1
４８５
  0
TEXT
  8
_0-a_20
 62
    7
 10
166.03709073544451
 20
67.860734928932487
 40
2
 41
1
 50
29.999999999999982
  1
２５５
  0
TEXT
  8
_0-a_20
 62
    7
 10
158.15539423050481
 20
63.377664527662404
 40
2
 41
1
 50
29.999999999999982
  1
２５５
  0
TEXT
  8
_0-a_20
 62
    7
 10
146.30816711021981
 20
54.361710758567
 40
2
 41
1
 50
0
  1
４７０
  0
LINE
  8
_0-a_20
  6
CONTINUOUS
 62
    3
 10
149.403115926103
 20
46.013705193821806
 11
149.4031159261213
 21
53.320126839038096
  0
LINE
  8
_0-a_20
  6
CONTINUOUS
 62
    3
 10
149.40311592613151
 20
57.331693208297196
 11
149.40311592614839
 21
64.104013628455306
  0
TEXT
  8
_0-a_20
 62
    7
 10
169.1985160377611
 20
44.545116783164701
 40
2
 41
1
 50
29.999999999999972
  1
１１５
  0
LINE
  8
_0-a_20
  6
CONTINUOUS
 62
    3
 10
156.7118389673829
 20
50.233398409132306
 11
159.21183896738069
 21
48.790022736156104
  0
LINE
  8
_0-a_20
  6
CONTINUOUS
 62
    3
 10
159.045172300714
 20
48.693797691291294
 11
162.22242100436841
 21
50.528183085626495
  0
LINE
  8
_0-a_20
  6
CENTER
 62
    3
 10
162.2224210043685
 20
50.528183085626495
 11
164.4774143808126
 21
51.8301041185358
  0
LINE
  8
_0-a_20
  6
CONTINUOUS
 62
    3
 10
159.21183896738069
 20
48.790022736156104
 11
158.8785056340478
 21
49.174922915616193
  0
LINE
  8
_0-a_20
  6
CONTINUOUS
 62
    3
 10
159.21183896738069
 20
48.790022736156104
 11
158.54517230071451
 21
48.982472825886504
  0
LINE
  8
_0-a_20
  6
CONTINUOUS
 62
    3
 10
156.7118389673829
 20
50.233398409132306
 11
157.0451723007159
 21
49.848498229672202
  0
LINE
  8
_0-a_20
  6
CONTINUOUS
 62
    3
 10
156.7118389673829
 20
50.233398409132306
 11
157.37850563404911
 21
50.040948319401906
  0
TEXT
  8
_0-a_20
 62
    7
 10
154.38199933858931
 20
45.455329403098602
 40
2
 41
1
 50
29.999999999999982
  1
７５
  0
TEXT
  8
_0-a_20
 62
    7
 10
184.29779663985551
 20
46.449097632532599
 40
2
 41
1
 50
0
  1
(φ115）
  0
LINE
  8
_0-a_20
  6
CONTINUOUS
 62
    3
 10
149.40311592610311
 20
46.013705193821806
 11
149.736449259436
 21
45.628805014361802
  0
LINE
  8
_0-a_20
  6
CONTINUOUS
 62
    3
 10
149.40311592610311
 20
46.013705193821906
 11
150.0697825927692
 21
45.821255104091506
  0
TEXT
  8
_0-a_20
 62
    7
 10
171.3453356651589
 20
52.058127920836995
 40
2
 41
1
 50
0
  1
床抜きの時
  0
ARC
  8
_0-a_20
  6
CONTINUOUS
 62
    3
 10
181.9300334368539
 20
45.418728385921867
 40
0.7000112449081816
 50
0.3518523128815075
 51
37.668520169976283
  0
ARC
  8
_0-a_20
  6
CONTINUOUS
 62
    3
 10
181.4834066666495
 20
45.108261949439296
 40
1.2435635027012557
 50
36.416246967524245
 51
61.9254352096969
  0
ARC
  8
_0-a_20
  6
CONTINUOUS
 62
    3
 10
180.95659652008626
 20
44.248700364458614
 40
2.2507208500658864
 50
60.390307652387811
 51
77.419162963696593
  0
ARC
  8
_0-a_20
  6
CONTINUOUS
 62
    3
 10
180.725066395797
 20
43.39597590684857
 40
3.1336605558911099
 50
76.683518487535125
 51
90.213951923304819
  0
ARC
  8
_0-a_20
  6
CONTINUOUS
 62
    3
 10
180.71100035186581
 20
43.314671928577312
 40
3.2149435558039317
 50
89.957861213804634
 51
103.14466837535791
  0
ARC
  8
_0-a_20
  6
CONTINUOUS
 62
    3
 10
180.53443731347477
 20
44.082011113434319
 40
2.4275585014337482
 50
103.20518752423314
 51
118.98534185967539
  0
ARC
  8
_0-a_20
  6
CONTINUOUS
 62
    3
 10
180.0401381142841
 20
44.9962158516662
 40
1.3883739221991775
 50
119.42384468739576
 51
142.23447313537923
  0
ARC
  8
_0-a_20
  6
CONTINUOUS
 62
    3
 10
179.54465484815495
 20
45.402205359564874
 40
0.7482464627624135
 50
143.57422606840481
 51
178.40540144876488
  0
ARC
  8
_0-a_20
  6
CONTINUOUS
 62
    3
 10
179.49669619483953
 20
45.427325843870364
 40
0.7000112449081271
 50
180.35185231286783
 51
217.66852016996242
  0
ARC
  8
_0-a_20
  6
CONTINUOUS
 62
    3
 10
179.94332296504393
 20
45.737792280353176
 40
1.2435635027013088
 50
216.41624696752623
 51
241.92543520969878
  0
ARC
  8
_0-a_20
  6
CONTINUOUS
 62
    3
 10
180.47013311160754
 20
46.597353865334114
 40
2.2507208500663687
 50
240.39030765238334
 51
257.41916296369209
  0
ARC
  8
_0-a_20
  6
CONTINUOUS
 62
    3
 10
180.70166323589604
 20
47.450078322943156
 40
3.1336605558904354
 50
256.68351848754139
 51
270.21395192331119
  0
ARC
  8
_0-a_20
  6
CONTINUOUS
 62
    3
 10
180.71572927982805
 20
47.531382301215615
 40
3.2149435558044597
 50
269.95786121379564
 51
283.14466837534906
  0
ARC
  8
_0-a_20
  6
CONTINUOUS
 62
    3
 10
180.89229231821832
 20
46.76404311635762
 40
2.4275585014334853
 50
283.20518752424465
 51
298.98534185968697
  0
ARC
  8
_0-a_20
  6
CONTINUOUS
 62
    3
 10
181.3865915174093
 20
45.84983837812613
 40
1.3883739221991254
 50
299.42384468739772
 51
322.23447313538111
  0
ARC
  8
_0-a_20
  6
CONTINUOUS
 62
    3
 10
181.88207478353849
 20
45.443848870227711
 40
0.7482464627624722
 50
323.57422606839106
 51
358.40540144875121
  0
ARC
  8
_0-a_20
  6
CONTINUOUS
 62
    3
 10
173.01308737790242
 20
77.887007703130863
 40
0.1521763575887853
 50
60.351852312893016
 51
97.668520169987659
  0
ARC
  8
_0-a_20
  6
CONTINUOUS
 62
    3
 10
173.02299138570982
 20
77.769176540685734
 40
0.2703398918914367
 50
96.416246967529688
 51
121.92543520970226
  0
ARC
  8
_0-a_20
  6
CONTINUOUS
 62
    3
 10
173.12755597167245
 20
77.57656528799285
 40
0.4892871413187844
 50
120.3903076523532
 51
137.41916296366199
  0
ARC
  8
_0-a_20
  6
CONTINUOUS
 62
    3
 10
173.26292901092796
 20
77.440288505780245
 40
0.6812305556283928
 50
136.68351848756612
 51
150.21395192333588
  0
ARC
  8
_0-a_20
  6
CONTINUOUS
 62
    3
 10
173.27670689976392
 20
77.428802953494625
 40
0.6989007730009654
 50
149.95786121378231
 51
163.1446683753357
  0
ARC
  8
_0-a_20
  6
CONTINUOUS
 62
    3
 10
173.11305108528546
 20
77.478968500410829
 40
0.5277301090073166
 50
163.20518752424903
 51
178.98534185969135
  0
ARC
  8
_0-a_20
  6
CONTINUOUS
 62
    3
 10
172.88720888372799
 20
77.485278653790346
 40
0.3018204178693479
 50
179.42384468739408
 51
202.23447313537741
  0
ARC
  8
_0-a_20
  6
CONTINUOUS
 62
    3
 10
172.75691782708131
 20
77.436125101253651
 40
0.1626622745135211
 50
203.57422606838276
 51
238.40540144874285
  0
ARC
  8
_0-a_20
  6
CONTINUOUS
 62
    3
 10
172.74697558703309
 20
77.429826586047383
 40
0.1521763575888283
 50
240.35185231289611
 51
277.66852016999098
  0
ARC
  8
_0-a_20
  6
CONTINUOUS
 62
    3
 10
172.73707157922578
 20
77.547657748492469
 40
0.270339891891414
 50
276.41624696751671
 51
301.92543520968945
  0
ARC
  8
_0-a_20
  6
CONTINUOUS
 62
    3
 10
172.63250699326267
 20
77.740269001185396
 40
0.4892871413190259
 50
300.39030765238817
 51
317.41916296369698
  0
ARC
  8
_0-a_20
  6
CONTINUOUS
 62
    3
 10
172.49713395400801
 20
77.876545783397873
 40
0.6812305556279327
 50
316.68351848755009
 51
330.21395192331988
  0
ARC
  8
_0-a_20
  6
CONTINUOUS
 62
    3
 10
172.48335606517122
 20
77.888031335683721
 40
0.6989007730013594
 50
329.95786121378518
 51
343.14466837533848
  0
ARC
  8
_0-a_20
  6
CONTINUOUS
 62
    3
 10
172.64701187965034
 20
77.837865788767303
 40
0.5277301090069973
 50
343.205187524255
 51
358.9853418596972
  0
ARC
  8
_0-a_20
  6
CONTINUOUS
 62
    3
 10
172.87285408120744
 20
77.831555635387858
 40
0.3018204178694176
 50
359.42384468739147
 51
22.234473135374916
  0
ARC
  8
_0-a_20
  6
CONTINUOUS
 62
    3
 10
173.00314513785418
 20
77.880709187924566
 40
0.1626622745135208
 50
23.574226068382728
 51
58.405401448742893
  0
ARC
  8
_0-a_20
  6
CONTINUOUS
 62
    3
 10
156.29098546848354
 20
68.23249766435228
 40
0.1521763575886546
 50
60.351852312883445
 51
97.668520169978081
  0
ARC
  8
_0-a_20
  6
CONTINUOUS
 62
    3
 10
156.30088947629093
 20
68.114666501906825
 40
0.2703398918916191
 50
96.416246967516258
 51
121.92543520968881
  0
ARC
  8
_0-a_20
  6
CONTINUOUS
 62
    3
 10
156.40545406225388
 20
67.92205524921448
 40
0.4892871413186666
 50
120.39030765240766
 51
137.41916296371645
  0
ARC
  8
_0-a_20
  6
CONTINUOUS
 62
    3
 10
156.54082710150874
 20
67.785778467001023
 40
0.6812305556283895
 50
136.68351848751539
 51
150.21395192328515
  0
ARC
  8
_0-a_20
  6
CONTINUOUS
 62
    3
 10
156.55460499034544
 20
67.774292914716369
 40
0.6989007730011087
 50
149.95786121383168
 51
163.14466837538507
  0
ARC
  8
_0-a_20
  6
CONTINUOUS
 62
    3
 10
156.39094917586621
 20
67.824458461631778
 40
0.5277301090069557
 50
163.20518752420875
 51
178.98534185965107
  0
ARC
  8
_0-a_20
  6
CONTINUOUS
 62
    3
 10
156.16510697430917
 20
67.830768615011579
 40
0.3018204178694051
 50
179.42384468737808
 51
202.23447313536144
  0
ARC
  8
_0-a_20
  6
CONTINUOUS
 62
    3
 10
156.03481591766257
 20
67.781615062474941
 40
0.1626622745136598
 50
203.57422606836252
 51
238.40540144872256
  0
ARC
  8
_0-a_20
  6
CONTINUOUS
 62
    3
 10
156.02487367761407
 20
67.775316547268588
 40
0.1521763575887591
 50
240.35185231294216
 51
277.66852017003703
  0
ARC
  8
_0-a_20
  6
CONTINUOUS
 62
    3
 10
156.01496966980687
 20
67.893147709714029
 40
0.2703398918916782
 50
276.41624696751171
 51
301.92543520968445
  0
ARC
  8
_0-a_20
  6
CONTINUOUS
 62
    3
 10
155.91040508384421
 20
68.085758962406274
 40
0.489287141318486
 50
300.39030765238147
 51
317.41916296369027
  0
ARC
  8
_0-a_20
  6
CONTINUOUS
 62
    3
 10
155.7750320445887
 20
68.222035744619618
 40
0.681230555628608
 50
316.68351848754162
 51
330.21395192331141
  0
ARC
  8
_0-a_20
  6
CONTINUOUS
 62
    3
 10
155.76125415575285
 20
68.233521296904499
 40
0.6989007730007079
 50
329.95786121380627
 51
343.14466837535957
  0
ARC
  8
_0-a_20
  6
CONTINUOUS
 62
    3
 10
155.92490997023114
 20
68.18335574998865
 40
0.5277301090073202
 50
343.20518752424908
 51
358.98534185969129
  0
ARC
  8
_0-a_20
  6
CONTINUOUS
 62
    3
 10
156.15075217178875
 20
68.177045596609105
 40
0.3018204178692058
 50
359.42384468739908
 51
22.234473135382551
  0
ARC
  8
_0-a_20
  6
CONTINUOUS
 62
    3
 10
156.28104322843512
 20
68.226199149145771
 40
0.1626622745136595
 50
23.574226068362449
 51
58.405401448722614
  0
ARC
  8
_0-a_20
  6
CONTINUOUS
 62
    3
 10
163.56249581145894
 20
51.099071213631106
 40
0.2008727920171579
 50
0.351852312886426
 51
37.668520169981278
  0
ARC
  8
_0-a_20
  6
CONTINUOUS
 62
    3
 10
163.43433334696562
 20
51.009980844901364
 40
0.3568486572967896
 50
36.416246967533041
 51
61.925435209705604
  0
ARC
  8
_0-a_20
  6
CONTINUOUS
 62
    3
 10
163.28316173969091
 20
50.763324042254666
 40
0.6458590265406406
 50
60.390307652391513
 51
77.419162963700401
  0
ARC
  8
_0-a_20
  6
CONTINUOUS
 62
    3
 10
163.21672266054679
 20
50.518629197897056
 40
0.8992243334296145
 50
76.683518487522889
 51
90.213951923292569
  0
ARC
  8
_0-a_20
  6
CONTINUOUS
 62
    3
 10
163.21268631750604
 20
50.495298491088732
 40
0.9225490203611722
 50
89.9578612138165
 51
103.14466837536978
  0
ARC
  8
_0-a_20
  6
CONTINUOUS
 62
    3
 10
163.16202040214142
 20
50.71549147456944
 40
0.6966037438896651
 50
103.20518752422981
 51
118.98534185967213
  0
ARC
  8
_0-a_20
  6
CONTINUOUS
 62
    3
 10
163.02017802324318
 20
50.977828486409976
 40
0.398402951587472
 50
119.42384468738905
 51
142.23447313537235
  0
ARC
  8
_0-a_20
  6
CONTINUOUS
 62
    3
 10
162.87799586861496
 20
51.094329823459091
 40
0.214714202357941
 50
143.57422606839805
 51
178.4054014487582
  0
ARC
  8
_0-a_20
  6
CONTINUOUS
 62
    3
 10
162.86423382027223
 20
51.101538310259855
 40
0.2008727920171224
 50
180.3518523128765
 51
217.66852016997137
  0
ARC
  8
_0-a_20
  6
CONTINUOUS
 62
    3
 10
162.99239628476579
 20
51.19062867898959
 40
0.3568486572969351
 50
216.41624696750563
 51
241.92543520967831
  0
ARC
  8
_0-a_20
  6
CONTINUOUS
 62
    3
 10
163.14356789204029
 20
51.437285481636344
 40
0.6458590265407366
 50
240.39030765239465
 51
257.41916296370334
  0
ARC
  8
_0-a_20
  6
CONTINUOUS
 62
    3
 10
163.21000697118399
 20
51.681980325993777
 40
0.8992243334294398
 50
256.68351848754867
 51
270.21395192331852
  0
ARC
  8
_0-a_20
  6
CONTINUOUS
 62
    3
 10
163.21404331422556
 20
51.705311032802349
 40
0.9225490203612455
 50
269.95786121378893
 51
283.14466837534223
  0
ARC
  8
_0-a_20
  6
CONTINUOUS
 62
    3
 10
163.26470922958976
 20
51.485118049321365
 40
0.6966037438895738
 50
283.20518752423294
 51
298.98534185967515
  0
ARC
  8
_0-a_20
  6
CONTINUOUS
 62
    3
 10
163.40655160848775
 20
51.222781037480971
 40
0.3984029515876337
 50
299.42384468741631
 51
322.23447313539981
  0
ARC
  8
_0-a_20
  6
CONTINUOUS
 62
    3
 10
163.54873376311627
 20
51.106279700431955
 40
0.2147142023579335
 50
323.57422606838395
 51
358.40540144874421
  0
TEXT
  8
_0-a_20
 62
    7
 10
169.4445860902465
 20
33.1310016030003
 40
2
 41
1
 50
0
  1
S=1/30
  0
LINE
  8
_0-a_20
  6
CONTINUOUS
 62
    3
 10
168.9043368161133
 20
32.123666547665394
 11
180.75890717821861
 21
32.123666547655503
  0
LINE
  8
_0-a_20
  6
CONTINUOUS
 62
    3
 10
168.9043368161133
 20
31.456999880998694
 11
180.75890717821781
 21
31.456999880988803
  0
LINE
  8
_0-a_20
  6
CONTINUOUS
 62
    3
 10
176.8822742345312
 20
61.878804640207591
 11
183.2044640891823
 21
58.228686625745212
  0
LINE
  8
_0-a_20
  6
CONTINUOUS
 62
    3
 10
190.289519235889
 20
54.138128129557714
 11
196.7782491940506
 21
50.391858141502297
  0
LINE
  8
_0-a_20
  6
CONTINUOUS
 62
    3
 10
165.5697825926878
 20
36.679875841870199
 11
164.90311592611229
 21
36.872325931548602
  0
INSERT
  2
-034-M9
  8
_0-a_20
 10
155.93231222822919
 20
68.092438366734001
 41
1
 42
1
 50
0
  0
INSERT
  2
-035-M10
  8
_0-a_20
 10
172.6451366108559
 20
77.728161592743106
 41
1
 42
1
 50
0
  0
INSERT
  2
-036-M11
  8
_0-a_20
 10
163.21336481586559
 20
51.100304761945495
 41
1
 42
1
 50
0
  0
INSERT
  2
-037-M12
  8
_0-a_20
 10
180.7133648158468
 20
45.4230271148962
 41
1
 42
1
 50
0
  0
TEXT
  8
_0-0_WAKU0
 62
    7
 10
204.12951167728238
 20
112.29670912951167
 40
2
 41
1
 50
0
  1
ＡＴＷ－６０６Ｂ，６０９Ｂ　標準施工図
  0
ENDSEC
  0
EOF
